>
 >
Persuasion Of You

Persuasion Of You Bass Tabs

Collective Soul - Persuasion Of You chords, tabs, tablatures, lyrics

Guitar lessons | Add/correct | Request | Top 50 tabs Artists:  A B C D E F G H I J K L M N O P Q R S T U V W X Y Z 0-9

Persuasion Of You Bass Tabs – Collective Soul

CD, Sheet music, Poster

Do you like Persuasion Of You? Share with your friends now
Bass TabsTabs
-----------------------------------------------------------------------------
	           
                    Collective Soul - Persuasion of You (BASS)
                       
-----------------------------------------------------------------------------

Tuning: Half Step Down

=============================================================================



Bass



                                      E  E  E  S S E  E  E  E   
F#||-------|-------|-------|-------|---------------------------|
C#||-------|-------|-------|-------|---------------------------|
G#||-------|-------|-------|-------|---------------------2-----|
D#||-------|-------|-------|-------|--0--0--0--0-0-3--3-----3--|


  E  E  E  E  Q    S S  E     E  E  E  S S E  E  E  E     E  E  E  E  H         
---------------------------|---------------------------|-----------------------|
---------------------------|---------------------------|-----------------------|
-----4-------------2-Ls-4--|---------------------2-----|-----4-----------------|
--2-----2--0---------------|--0--0--0--0-0-3--3-----3--|--2-----2--0-----------|


  E  E  Q    E  E  Q       E  E  E  E  H           E  E  Q    E  E  Q     
------------------------|-----------------------|------------------------|
------------------------|-----------------------|------------------------|
------------------------|-----------------------|------------------------|
--0--0-------3--3-------|--2--2-----0-----------|--0--0-------3--3-------|


  E  E  E  E  H           E  E  Q    E  E  Q       E  E  E  E  H         
-----------------------|------------------------|-----------------------|
-----------------------|------------------------|-----------------------|
-----------------------|------------------------|-----------------------|
--2--2-----0-----------|--0--0-------3--3-------|--2--2-----0-----------|


  E  E  Q    E  E  Q       E  E  E  E  H           E  E  E  E  E  E  E  E   
------------------------|-----------------------|--------------------------|
------------------------|-----------------------|--------------------------|
------------------------|-----------------------|--------------------------|
--0--0-------3--3-------|--2--2-----0-----------|--5--5--5--5--5--5--5--5--|


  E  E  E  E  E  E  E  E     E  E  H        Q             
--------------------------|----------------------|-------|
--------------------------|----------------------|-------|
--------------------------|----------------------|-------|
--5--5--5--5--5--5--5--5--|--0--0----------------|-------|


  E  E  E  E  E  E  E  E     E  E  E  E  E  E  E  E   
--------------------------|--------------------------|
--------------------------|--------------------------|
--------------------------|--------------------------|
--5--5--5--5--5--5--5--5--|--5--5--5--5--5--5--5--5--|


  E  E  E  E  E  E  E  E     E  E  E  E  E  E  E  E   
--------------------------|--------------------------|
--------------------------|--------------------------|
--------------------------|--------------------------|
--0--0--0--0--0--0--0--0--|--2--2--2--2--2--2--2--2--|


  E  E  E  E  E  E  E  E     E  E  E  E  E  E  E  E   
--------------------------|--------------------------|
--------------------------|--------------------------|
--------------------------|--------------------------|
--5--5--5--5--5--5--5--5--|--0--0--0--0--0--0--0--0--|


  E  E  E  E  E  E  E  E     E  E  E  E  E  E  E  E   
--------------------------|--------------------------|
--------------------------|--------------------------|
--------------------------|--------------------------|
--0--0--0--0--0--0--0--0--|--2--2--2--2--2--2--2--2--|


  E  E  E  E  E  E  E  E     E  E  Q    E  E  Q       E  E  E  E  E  E  E   E   
--------------------------|------------------------|---------------------------|
--------------------------|------------------------|---------------------------|
--------------------------|------------------------|-----------------2--2s--4--|
--5--5--5--5--5--5--5--5--|--0--0-------3--3-------|--2--2-----0---------------|


  E  E  E  S S E  E  E  E     E  E  E  E  H           E  E  E  E  E  E  E  E   
---------------------------|-----------------------|--------------------------|
---------------------------|-----------------------|--------------------------|
---------------------2-----|-----4-----------------|--------------------------|
--0--0--0--0-0-3--3-----3--|--2-----2--0-----------|--0--0--0--0--3--3--3--3--|


  E  E  E  E  E  E  E  E     E  E  E  E  E  E  E  E   
--------------------------|--------------------------|
--------------------------|--------------------------|
--------------------------|--------------------------|
--2--2--2--0--0--0--0--0--|--0--0--0--0--3--3--3--3--|


  E  E  E  E  E  E  E  E     E  E  E  E  E  E  E  E   
--------------------------|--------------------------|
--------------------------|--------------------------|
--------------------2--4--|--------------------------|
--2--2--2--0--0--0--------|--0--0--0--0--3--3--3--3--|


  E  E  E  E  E  E  E  E     E  E  E  E  E  E  E  E     E  E  E  E  H         
--------------------------|--------------------------|-----------------------|
--------------------------|--------------------------|-----------------------|
--------------------2--4--|--------------------------|-----------------------|
--2--2--2--0--0--0--------|--0--0--0--0--3--3--3--3--|--2--2--2--0-----------|


  E  E  E  E  E  E  E  E     E  E  E  E  E  E  E  E     E  E  H        Q     
--------------------------|--------------------------|----------------------|
--------------------------|--------------------------|----------------------|
--------------------------|--------------------------|----------------------|
--5--5--5--5--5--5--5--5--|--5--5--5--5--5--5--5--5--|--0--0----------------|


          E  E  E  E  E  E  E  E        E   E   E   E   E   E   E   E   
-------|---------------------------|-----------------------------------|
-------|---------------------------|-----------------------------------|
-------|---------------------------|--/12--12--12--12--12--12--12--12--|
-------|--5--5--5--5--5--5--5--5/--|-----------------------------------|


  E  E  E  E  E  E  E  E     E  E  E  E  E  E  E  E   
--------------------------|--------------------------|
--------------------------|--------------------------|
--------------------------|--------------------------|
--0--0--0--0--0--0--0--0--|--2--2--2--2--2--2--2--2--|


  E  E  E  E  E  E  E  E     E  E  E  E  E  E  E  E   
--------------------------|--------------------------|
--------------------------|--------------------------|
--------------------------|--------------------------|
--5--5--5--5--5--5--5--5--|--0--0--0--0--0--0--0--0--|


  E  E  E  E  E  E  E  E     E  E  E  E  E  E  E  E   
--------------------------|--------------------------|
--------------------------|--------------------------|
--------------------------|--------------------------|
--0--0--0--0--0--0--0--0--|--2--2--2--2--2--2--2--2--|


  E  E  E  E  E  E  E  E     E  E  E  E  E  E  E  E   
--------------------------|--------------------------|
--------------------------|--------------------------|
--------------------------|--------------------------|
--5--5--5--5--5--5--5--5--|--0--0--0--0--0--0--0--0--|


  E  E  E  E  E  E  E  E     E  E  E  E  E  E  E  E   
--------------------------|--------------------------|
--------------------------|--------------------------|
--------------------------|--------------------------|
--0--0--0--0--0--0--0--0--|--2--2--2--2--2--2--2--2--|


  E  E  E  E  E  E  E  E     E  E  E  E  E  E  E  E   
--------------------------|--------------------------|
--------------------------|--------------------------|
--------------------------|--------------------------|
--5--5--5--5--5--5--5--5--|--0--0--0--0--0--0--0--0--|


  E  E  E  E  E  E  E  E     E  E  E  E  E  E  E  E   
--------------------------|--------------------------|
--------------------------|--------------------------|
--------------------------|--------------------------|
--0--0--0--0--0--0--0--0--|--2--2--2--2--2--2--2--2--|


  E  E  E  E  E  E  E  E     E  E  E  E  E  E  E  E   
--------------------------|--------------------------|
--------------------------|--------------------------|
--------------------------|--------------------------|
--5--5--5--5--5--5--5--5--|--0--0--0--0--0--0--0--0--|


  E  E  E  E  E  E  E  E     E  E  E  E  E  E  E  E     E  E  Q    E  E  Q     
--------------------------|--------------------------|------------------------|
--------------------------|--------------------------|------------------------|
--4--4--4--4--4--4--4--4--|--------------------------|------------------------|
--------------------------|--5--5--5--5--5--5--5--5--|--0--0-------0--0-------|


  E  E  Q    E  E  Q       E  E  E  E  E  E  E  E   
------------------------|--------------------------|
------------------------|--------------------------|
------------------------|--4--4--4--4--4--4--4--4--|
--0--0-------0--0-------|--------------------------|


    E   E   E   E   E   E   E   E     E  E  Q    E  E  Q     
-----------------------------------|------------------------|
-----------------------------------|------------------------|
--/12--12--12--12--12--12--12--12--|------------------------|
-----------------------------------|--0--0-------3--3-------|


  E  E  E  E  H           E  E  Q    E  E  Q       E  E  E  E  H         
-----------------------|------------------------|-----------------------|
-----------------------|------------------------|-----------------------|
-----------------------|------------------------|-----------------------|
--2--2-----0-----------|--0--0-------3--3-------|--2--2-----0-----------|


  E  E  Q    E  E  Q       E  E  E  E  H           E  E  Q    E  E  Q     
------------------------|-----------------------|------------------------|
------------------------|-----------------------|------------------------|
------------------------|-----------------------|------------------------|
--0--0-------3--3-------|--2--2-----0-----------|--0--0-------3--3-------|


  E  E  E  E  H           E  E  E  E  E  E  E  E     E  E  E  E  E  E  E  E   
-----------------------|--------------------------|--------------------------|
-----------------------|--------------------------|--------------------------|
-----------------------|--------------------------|--------------------------|
--2--2-----0-----------|--5--5--5--5--5--5--5--5--|--5--5--5--5--5--5--5--5--|


  E  E  H        Q               E  E  E  E  E  E  E  E    
----------------------|-------|---------------------------|
----------------------|-------|---------------------------|
----------------------|-------|---------------------------|
--0--0----------------|-------|--5--5--5--5--5--5--5--5/--|


   E   E   E   E   E   E   E   E     E  E  E  E  E  E  E  E   
----------------------------------|--------------------------|
----------------------------------|--------------------------|
--12--12--12--12--12--12--12--12--|--------------------------|
----------------------------------|--0--0--0--0--0--0--0--0--|


  E  E  E  E  E  E  E  E     E  E  E  E  E  E  E  E   
--------------------------|--------------------------|
--------------------------|--------------------------|
--------------------------|--------------------------|
--2--2--2--2--2--2--2--2--|--5--5--5--5--5--5--5--5--|


  E  E  E  E  E  E  E  E     E  E  E  E  E  E  E  E   
--------------------------|--------------------------|
--------------------------|--------------------------|
--------------------------|--------------------------|
--0--0--0--0--0--0--0--0--|--0--0--0--0--0--0--0--0--|


  E  E  E  E  E  E  E  E     E  E  E  E  E  E  E  E   
--------------------------|--------------------------|
--------------------------|--------------------------|
--------------------------|--------------------------|
--2--2--2--2--2--2--2--2--|--5--5--5--5--5--5--5--5--|


  E  E  E  E    S  S  S  S   S  S  S  S    E  E  E  E  E  E  E  E   
----------------------------------------|--------------------------|
----------------------------------------|--------------------------|
----------------------------------------|--------------------------|
--0--0--0--0--/12-12-12-12-/12-12-12-12-|--0--0--0--0--0--0--0--0--|


  E  E  E  E  E  E  E  E     E  E  E  E  E  E  E  E   
--------------------------|--------------------------|
--------------------------|--------------------------|
--------------------------|--------------------------|
--2--2--2--2--2--2--2--2--|--5--5--5--5--5--5--5--5--|


  E  E  E  E  E  E  E  E     E  E  E  E  E  E  E  E   
--------------------------|--------------------------|
--------------------------|--------------------------|
--------------------------|--------------------------|
--0--0--0--0--0--0--0--0--|--0--0--0--0--0--0--0--0--|


  E  E  E  E  E  E  E  E     E  E  E  E  E  E  E  E   
--------------------------|--------------------------|
--------------------------|--------------------------|
--------------------------|--------------------------|
--2--2--2--2--2--2--2--2--|--5--5--5--5--5--5--5--5--|


  E  E  E  E  E  E  E  E     E  E  E  E  E  E  E  E   
--------------------------|--------------------------|
--------------------------|--------------------------|
--------------------------|--------------------------|
--0--0--0--0--0--0--0--0--|--0--0--0--0--0--0--0--0--|


  E  E  E  E  E  E  E  E     E  E  E  E  E  E  E  E   
--------------------------|--------------------------|
--------------------------|--------------------------|
--------------------------|--------------------------|
--2--2--2--2--2--2--2--2--|--5--5--5--5--5--5--5--5--|


  E  E  E  E  E  E  E  E     E  E  E  E  E  E  E  E   
--------------------------|--------------------------|
--------------------------|--------------------------|
--------------------------|--------------------------|
--0--0--0--0--0--0--0--0--|--0--0--0--0--0--0--0--0--|


  E  E  E  E  E  E  E  E     E  E  E  E  E  E  E  E     E  E  Q    E  E  Q     
--------------------------|--------------------------|------------------------|
--------------------------|--------------------------|------------------------|
--------------------------|--------------------------|------------------------|
--2--2--2--2--2--2--2--2--|--5--5--5--5--5--5--5--5--|--0--0-------3--3-------|


  E  E  E  E  H           E  E  Q    E  E  Q       E  E  E  E  E  E  E   E   
-----------------------|------------------------|---------------------------|
-----------------------|------------------------|---------------------------|
-----------------------|------------------------|--------------------2s--4--|
--2--2-----0-----------|--0--0-------3--3-------|--2--2-----0-----0---------|


  E  E  E  S S E  E  E  E     E  E  E  E  E  E  E   E   
---------------------------|---------------------------|
---------------------------|---------------------------|
---------------------2-----|-----4--------------2s--4--|
--0--0--0--0-0-3--3-----3--|--2-----2--0-----0---------|


  E  E  E  S S E  E  E  E     E  E  E  E  H          
---------------------------|-----------------------||
---------------------------|-----------------------||
---------------------2-----|-----4-----------------||
--0--0--0--0-0-3--3-----3--|--2-----2--0-----------||




Duration Legend
---------------
W - whole
H - half
Q - quarter
E - 8th
S - 16th
T - 32nd
X - 64th
. - note dotted
|-n-|  - n-tuplets


Tablature Legend
----------------
L - tied note
x - dead note
g - grace note
(n) - ghost note
> - accentuded note
NH - natural harmonic
AH - artificial harmonic
TH - tapped harmonic
SH - semi harmonic
PH - pitch harmonic
h - hammer on
p - pull off
b - bend
br - bendRelease
pb - preBend
pbr - preBendRelease
brb - bendReleaseBend
\n/ - tremolo bar dip
\n - tremolo bar dive
-/n - tremolo bar Release up
/n\ - tremolo bar inverted dip
/n - tremolo bar return
-\n - tremolo bar Release down
S - shift slide
s - legato slide
/ -  slide into from below or out of upwards
\ -  slide into from above or out of downwards
~ - vibrato
W - wide vibrato
tr - trill
TP - tremolo picking
T - tapping
S - slap
P - pop
< - fade in
^ - brush up
v - brush down





Comments


Popular Collective Soul tabs & chords
I Really Dont Need Anymore Friends Chords
Bearing Witness 1 Tabs
December Complete Tabs
Fuzzy Tabs
In Between  Tabs
Not The One Tabs
Why Part Tabs
Why Part 2 2 Tabs
After All Ukulele
No More No Less Ukulele


Song lyrics



↑ Back to top | Tablatures and chords are parodies/interpretations of the original songs. You may use it for private study, scholarship, research or language learning purposes only
© 2014 AZChords.com Contact us | Privacy policy | DMCA | Add/correct tabs | Request tabs | Top 50 tabs