» » »

Collective Soul, Perfect To Stay Tabs (ver.1)

Artists:  A B C D E F G H I J K L M N O P Q R S T U V W X Y Z # 

Perfect To Stay Tabs (ver.1)

Collective Soul Tabs
 Rating:
4/5 (4 votes)
Perfect To Stay lessons Tabs too difficult? Try these video lessons and learn fast
                
Perfect to stay_ Collective soul

Intro: Am F C G  x2


|----------------------------------------------------|
|--11-9-11-7---9-11--11-9-11-7---7-------------------|
|------------6-----------------6---7s9s7-5-----------|
|----------------------------------------------------|
|----------------------------------------------------|
|----------------------------------------------------|

              Am     F C        G        Am  F C
She said good day boy, are you ready to shake

G         Am      F C          G           Am  F C G
I said I love noise and this life that it makes

CHORUS
F              C                          F
See I have a line though it's subject to change

                C                           F
I once had a thought but then I gave it away

                 C                        Bm
Yeah sooner or later I'll be perfect to stay

F                              C
Oh Oh Oh Oh… I’ll be perfect to stay  x2

Am  F  C  G
               Am     F C        G        Am  F C
She said good night boy, are you feeling alone

G         Am      F C          G           Am  F C G
I said I love time but never ever this long

CHORUS
Am                    G
Like the sun surely loves it's newborn days yeah

Am                          G
Like all oceans love their waves I'm perfect to stay



|--s10-10-10-10-10-10-10-10-10-10-10-10--s2s10----------|
|-------------------------------------------------------|
|-------------------------------------------------------| x2
|-------------------------------------------------------| 
|-------------------------------------------------------|
|-------------------------------------------------------|

|-14-12-14-10-10s8s6------6-8-10-13-13------------------|
|-------------------------------------------------------|
|-------------------------------------------------------| 
|-------------------------------------------------------| 
|-------------------------------------------------------|
|-------------------------------------------------------|
            
Submit corrections

comments powered by Disqus
↑ Back to top | Collective Soul Tabs for Perfect To Stay. Lyrics for acoustic guitar and electric guitar. Tablatures and chords are parodies/interpretations of the original songs. You may use it for private study, scholarship, research or language learning purposes only