>
 >
Never Here Alone 1

Never Here Alone 1 Guitar Tabs

Collective Soul - Never Here Alone 1 chords, tabs, tablatures, lyrics

Guitar lessons | Add/correct | Request | Top 50 tabs Artists:  A B C D E F G H I J K L M N O P Q R S T U V W X Y Z 0-9

Never Here Alone 1 Guitar Tabs – Collective Soul

CD, Sheet music, Poster

Do you like Never Here Alone 1? Share with your friends now
Bass TabsTabsTabs v2
-----------------------------------------------------------------------------
                   
                    Collective Soul - Never here Alone (GUITAR)
                       
-----------------------------------------------------------------------------

Tuning: Half Step Down

=============================================================================


Guitar 1



              E  S S E  S S E  E  E  S S    E  S S E  S S E  S S E  S S  
D#||-------|-----------------------------|------------------------------|
A#||-------|-----------------------------|----------------3------1------|
F#||-------|--4--4-4-4--4-4-4--4--4--4-4-|--4--4-4-4------2------0------|
C#||-------|--5--5-5-5--5-5-5--5--5--5-5-|--5--5-5-5--x-x-4--x-x-2--x-x-|
G#||-------|--5--5-5-5--5-5-5--5--5--5-5-|--5--5-5-5--x-x----x-x----x-x-|
D#||-------|--3--3-3-3--3-3-3--3--3--3-3-|--3--3-3-3--------------------|


  E  S S E  S S E  E  E  S S    E  S S E  S S E  S S E  S S  
-----------------------------|------------------------------|
-----------------------------|----------------3------1------|
--4--4-4-4--4-4-4--4--4--4-4-|--4--4-4-4------2------0------|
--5--5-5-5--5-5-5--5--5--5-5-|--5--5-5-5--x-x-4--x-x-2--x-x-|
--5--5-5-5--5-5-5--5--5--5-5-|--5--5-5-5--x-x----x-x----x-x-|
--3--3-3-3--3-3-3--3--3--3-3-|--3--3-3-3--------------------|


  E  S S E  S S E  E  E  S S    E  S S E  S S E  S S E  S S  
-----------------------------|------------------------------|
-----------------------------|----------------3------1------|
--4--4-4-4--4-4-4--4--4--4-4-|--4--4-4-4------2------0------|
--5--5-5-5--5-5-5--5--5--5-5-|--5--5-5-5--x-x-4--x-x-2--x-x-|
--5--5-5-5--5-5-5--5--5--5-5-|--5--5-5-5--x-x----x-x----x-x-|
--3--3-3-3--3-3-3--3--3--3-3-|--3--3-3-3--------------------|


  E  S S E  S S E  E  E  S S    E  S S E  S S E  S S E  S S  
-----------------------------|------------------------------|
-----------------------------|----------------3------2------|
--4--4-4-4--4-4-4--4--4--4-4-|--4--4-4-4------2------1------|
--5--5-5-5--5-5-5--5--5--5-5-|--5--5-5-5--x-x-4--x-x-3--x-x-|
--5--5-5-5--5-5-5--5--5--5-5-|--5--5-5-5--x-x----x-x----x-x-|
--3--3-3-3--3-3-3--3--3--3-3-|--3--3-3-3--------------------|


  Q    E.  S S E.  S S S S    E  E  E.  S S E.  S S S S  
-------0---0-0-0---0-0-0-0-|-----0--0---0-0-0---0-0-0-0-|
-------0---0-0-0---0-0-0-0-|-----0--0---0-0-0---0-0-0-0-|
-------1---1-1-1---1-1-1-1-|--1--1--1---1-1-1---1-1-0-1-|
-------0---0-0-0---0-0-0-0-|--0-----0---0-0-0---0-0-0-0-|
-------2---2-2-2---2-2-2-2-|--2-----2---2-2-2---2-2-2-2-|
--0------------------------|----------------------------|


  Q    E.  S S E  S S S S S    W                   E  E  Q.     E  E  E   
--0----0---0-0-0--0-0-0-0-0-|-------------------|--2--2--2---------2-----|
--2----2---2-2-2--2-2-2-2-2-|-------------------|--3--3--3------3--3-----|
--0----0---0-0-0--0-0-0-0-0-|-------------------|--2--2--2------2--2--2--|
--2----2---2-2-2----2-2-2-2-|-------------------|--0--0--0------0--0--0--|
--0----0---0-0-0----0-0-0-0-|-------------------|------------------------|
----------------------------|-------------------|------------------------|


  E  E  Q.     E  E  E     E  E  Q.     E  E  E     E  E  Q.     E  E  E   
--------0---------0-----|--------3---------3-----|--------3---------3-----|
--1--1--1------1--1-----|--3--3--3------3--3--3--|--3--3--3------3--3--3--|
--0--0--0------0--0--0--|--0--0--0------0--0--0--|--0--0--0------0--0--0--|
--2--2--2------2--2--2--|--0--0--0------0--0--0--|--0--0--0------0--0--0--|
--3--3--3------3--3--3--|------------------------|------------------------|
------------------------|--3--3--3------3--3-----|--3--3--3---------------|


  E  E  Q.     E  E  E     E  E  Q.     E  E  E     E  E  Q.     E  E  E   
--2--2--2---------2-----|--------0---------0-----|--------3---------3-----|
--3--3--3------3--3-----|--1--1--1------1--1-----|--3--3--3------3--3--3--|
--2--2--2------2--2--2--|--0--0--0------0--0--0--|--0--0--0------0--0--0--|
--0--0--0------0--0--0--|--2--2--2------2--2--2--|--0--0--0------0--0--0--|
------------------------|--3--3--3------3--3--3--|------------------------|
------------------------|------------------------|--3-----3------3--3-----|


  E  E  Q.     E  E  E     E  E  Q.     S S E  E     E  E  Q.     S S E  E   
--------3---------3-----|--2--2--2----------2-----|--------0----------0-----|
--3--3--3------3--3--3--|--3--3--3------3-3-3-----|--1--1--1------1-1-1-----|
--0--0--0------0--0--0--|--2--2--2------2-2-2--2--|--0--0--0------0-0-0--0--|
--0--0--0------0--0--0--|--0--0--0------0-0-0--0--|--2--2--2------2-2-2--2--|
------------------------|-------------------------|--3--3--3------3-3-3--3--|
--3--3--3---------------|-------------------------|-------------------------|


  W                   Q    E  S S E  S S E  S S    E  E  E  E  E  E  E  E   
-------------------|----------------------------|--------------------------|
-------------------|--------------3------1------|--------------------------|
--4----------------|--L----L------2------0------|--4--4--4--4--4--4--4--4--|
--5----------------|--L----L--x-x-4--x-x-2--x-x-|--5--5--5--5--5--5--5--5--|
--5----------------|--L----L--x-x----x-x----x-x-|--5--5--5--5--5--5--5--5--|
--3----------------|--L----L--------------------|--3--3--3--3--3--3--3--3--|


  E  E  E  S S E  S S E  S S    E  S S E  S S E  E  E  S S  
-----------------------------|-----------------------------|
---------------3------1------|-----------------------------|
--4--4--4------2------0------|--4--4-4-4--4-4-4--4--4--4-4-|
--5--5--5--x-x-4--x-x-2--x-x-|--5--5-5-5--5-5-5--5--5--5-5-|
--5--5--5--x-x----x-x----x-x-|--5--5-5-5--5-5-5--5--5--5-5-|
--3--3--3--------------------|--3--3-3-3--3-3-3--3--3--3-3-|


  E  S S E  S S E  S S E  S S    E  S S E  S S E  E  E  S S  
------------------------------|-----------------------------|
----------------3------1------|-----------------------------|
--4--4-4-4------2------0------|--4--4-4-4--4-4-4--4--4--4-4-|
--5--5-5-5--x-x-4--x-x-2--x-x-|--5--5-5-5--5-5-5--5--5--5-5-|
--5--5-5-5--x-x----x-x----x-x-|--5--5-5-5--5-5-5--5--5--5-5-|
--3--3-3-3--------------------|--3--3-3-3--3-3-3--3--3--3-3-|


  E  E  E  S S E  S S E  S S    Q    E.  S S E.  S S S S  
-----------------------------|-------0---0-0-0---0-0-0-0-|
---------------3------2------|-------0---0-0-0---0-0-0-0-|
--4--4--4------2------1------|-------1---1-1-1---1-1-1-1-|
--5--5--5--x-x-4--x-x-3--x-x-|-------0---0-0-0---0-0-0-0-|
--5--5--5--x-x----x-x----x-x-|-------2---2-2-2---2-2-2-2-|
--3--3--3--------------------|--0------------------------|


  E  E  E.  S S E.  S S S S    Q    E.  S S E  S S S S S    W                 
-----0--0---0-0-0---0-0-0-0-|--0----0---0-0-0--0-0-0-0-0-|-------------------|
-----0--0---0-0-0---0-0-0-0-|--2----2---2-2-2--2-2-2-2-2-|-------------------|
--1--1--1---1-1-1---1-1-0-1-|--0----0---0-0-0--0-0-0-0-0-|-------------------|
--0-----0---0-0-0---0-0-0-0-|--2----2---2-2-2----2-2-2-2-|-------------------|
--2-----2---2-2-2---2-2-2-2-|--0----0---0-0-0----0-0-0-0-|-------------------|
----------------------------|----------------------------|-------------------|


  E  E  Q.     E  E  E     E  E  Q.     E  E  E     E  E  Q.     E  E  E   
--2--2--2---------2-----|--------0---------0-----|--------3---------3-----|
--3--3--3------3--3-----|--1--1--1------1--1-----|--3--3--3------3--3--3--|
--2--2--2------2--2--2--|--0--0--0------0--0--0--|--0--0--0------0--0--0--|
--0--0--0------0--0--0--|--2--2--2------2--2--2--|--0--0--0------0--0--0--|
------------------------|--3--3--3------3--3--3--|------------------------|
------------------------|------------------------|--3--3--3------3--3-----|


  E  E  Q.     E  E  E     E  E  Q.     E  E  E     E  E  Q.     E  E  E   
--------3---------3-----|--2--2--2---------2-----|--------0---------0-----|
--3--3--3------3--3--3--|--3--3--3------3--3-----|--1--1--1------1--1-----|
--0--0--0------0--0--0--|--2--2--2------2--2--2--|--0--0--0------0--0--0--|
--0--0--0------0--0--0--|--0--0--0------0--0--0--|--2--2--2------2--2--2--|
------------------------|------------------------|--3--3--3------3--3--3--|
--3--3--3---------3-----|------------------------|------------------------|


  E  E  Q.     E  E  E     E  E  Q.     E  E  E     E  E  Q.     S S E  E   
--------3---------3-----|--------3---------3-----|--2--2--2----------2-----|
--3--3--3------3--3--3--|--3--3--3------3--3--3--|--3--3--3------3-3-3-----|
--0--0--0------0--0--0--|--0--0--0------0--0--0--|--2--2--2------2-2-2--2--|
--0--0--0------0--0--0--|--0--0--0------0--0--0--|--0--0--0------0-0-0--0--|
------------------------|------------------------|-------------------------|
--3-----3------3--3-----|--3--3--3---------------|-------------------------|


  E  E  Q.     S S E  E     E  E  E  E  E  E  E  E     E  E  E  E  E  E  E  E   
--------0----------0-----|--3-----3-----3-----3-----|--3-----3-----3-----3-----|
--1--1--1------1-1-1-----|--5-----5-----5-----5-----|--5-----5-----5-----5-----|
--0--0--0------0-0-0--0--|--4-----4-----4-----4-----|--4-----4-----4-----4-----|
--2--2--2------2-2-2--2--|--------------------------|--------------------------|
--3--3--3------3-3-3--3--|--------------------------|--------------------------|
-------------------------|--------------------------|--------------------------|


  E  E  E  E  E  E  E  E     E  E  E  E  E  E  E  E   
--5-----5-----5-----5-----|--5-----5-----5-----5-----|
--5-----5-----5-----5-----|--5-----5-----5-----5-----|
--6-----6-----6-----6-----|--6-----6-----6-----6-----|
--------------------------|--------------------------|
--------------------------|--------------------------|
--------------------------|--------------------------|


  E  E  E  E  E  E  E  E     E  E  E  E  E  E  E  E   
--0-----0-----0-----0-----|--0-----0-----0-----0-----|
--1-----1-----1-----1-----|--1-----1-----1-----1-----|
--0-----0-----0-----0-----|--0-----0-----0-----0-----|
--------------------------|--------------------------|
--------------------------|--------------------------|
--------------------------|--------------------------|


  E  S S E  S S E  E  E  S S    E  S S E  S S E  S S E  S S  
-----------------------------|------------------------------|
-----------------------------|----------------3------1------|
--4--4-4-4--4-4-4--4--4--4-4-|--4--4-4-4------2------0------|
--5--5-5-5--5-5-5--5--5--5-5-|--5--5-5-5--x-x-4--x-x-2--x-x-|
--5--5-5-5--5-5-5--5--5--5-5-|--5--5-5-5--x-x----x-x----x-x-|
--3--3-3-3--3-3-3--3--3--3-3-|--3--3-3-3--------------------|


  E  S S E  S S E  E  E  S S    E  S S E  S S E  S S E  S S  
-----------------------------|------------------------------|
-----------------------------|----------------3------1------|
--4--4-4-4--4-4-4--4--4--4-4-|--4--4-4-4------2------0------|
--5--5-5-5--5-5-5--5--5--5-5-|--5--5-5-5--x-x-4--x-x-2--x-x-|
--5--5-5-5--5-5-5--5--5--5-5-|--5--5-5-5--x-x----x-x----x-x-|
--3--3-3-3--3-3-3--3--3--3-3-|--3--3-3-3--------------------|


  E  S S E  S S E  E  E  S S    E  S S E  S S E  S S E  S S  
-----------------------------|------------------------------|
-----------------------------|----------------3------1------|
--4--4-4-4--4-4-4--4--4--4-4-|--4--4-4-4------2------0------|
--5--5-5-5--5-5-5--5--5--5-5-|--5--5-5-5--x-x-4--x-x-2--x-x-|
--5--5-5-5--5-5-5--5--5--5-5-|--5--5-5-5--x-x----x-x----x-x-|
--3--3-3-3--3-3-3--3--3--3-3-|--3--3-3-3--------------------|


  E  S S E  S S E  E  E  S S         E  E  Q.     E  E  E   
-----------------------------|----|--2--2--2---------2-----|
-----------------------------|----|--3--3--3------3--3-----|
--4--4-4-4--4-4-4--4--4--4-4-|----|--2--2--2------2--2--2--|
--5--5-5-5--5-5-5--5--5--5-5-|----|--0--0--0------0--0--0--|
--5--5-5-5--5-5-5--5--5--5-5-|----|------------------------|
--3--3-3-3--3-3-3--3--3--3-3-|----|------------------------|


  E  E  Q.     E  E  E     E  E  Q.     E  E  E     E  E  Q.     E  E  E   
--------0---------0-----|--------3---------3-----|--------3---------3-----|
--1--1--1------1--1-----|--3--3--3------3--3--3--|--3--3--3------3--3--3--|
--0--0--0------0--0--0--|--0--0--0------0--0--0--|--0--0--0------0--0--0--|
--2--2--2------2--2--2--|--0--0--0------0--0--0--|--0--0--0------0--0--0--|
--3--3--3------3--3--3--|------------------------|------------------------|
------------------------|--3--3--3------3--3-----|--3--3--3---------3-----|


  E  E  Q.     E  E  E     E  E  Q.     E  E  E     E  E  Q.     E  E  E   
--2--2--2---------2-----|--------0---------0-----|--------3---------3-----|
--3--3--3------3--3-----|--1--1--1------1--1-----|--3--3--3------3--3--3--|
--2--2--2------2--2--2--|--0--0--0------0--0--0--|--0--0--0------0--0--0--|
--0--0--0------0--0--0--|--2--2--2------2--2--2--|--0--0--0------0--0--0--|
------------------------|--3--3--3------3--3--3--|------------------------|
------------------------|------------------------|--3-----3------3--3-----|


  E  E  Q.     E  E  E     E  E  Q.     E  E  E     E  E  Q.     E  E  E   
--------3---------3-----|--2--2--2---------2-----|--------0---------0-----|
--3--3--3------3--3--3--|--3--3--3------3--3-----|--1--1--1------1--1-----|
--0--0--0------0--0--0--|--2--2--2------2--2--2--|--0--0--0------0--0--0--|
--0--0--0------0--0--0--|--0--0--0------0--0--0--|--2--2--2------2--2--2--|
------------------------|------------------------|--3--3--3------3--3--3--|
--3--3--3---------------|------------------------|------------------------|


  E  E  Q.     E  E  E     E  E  Q.     E  E  E     E  E  Q.     E  E  E   
--------3---------3-----|--------3---------3-----|--2--2--2---------2-----|
--3--3--3------3--3--3--|--3--3--3------3--3--3--|--3--3--3------3--3-----|
--0--0--0------0--0--0--|--0--0--0------0--0--0--|--2--2--2------2--2--2--|
--0--0--0------0--0--0--|--0--0--0------0--0--0--|--0--0--0------0--0--0--|
------------------------|------------------------|------------------------|
--3--3--3------3--3-----|--3--3--3---------3-----|------------------------|


  E  E  Q.     E  E  E     W                   Q    E  S S E  S S E  S S  
--------0---------0-----|-------------------|----------------------------|
--1--1--1------1--1-----|-------------------|--------------3------1------|
--0--0--0------0--0--0--|--4----------------|--L----L------2------0------|
--2--2--2------2--2--2--|--5----------------|--L----L--x-x-4--x-x-2--x-x-|
--3--3--3------3--3--3--|--5----------------|--L----L--x-x----x-x----x-x-|
------------------------|--3----------------|--L----L--------------------|


  W                   Q    E  S S E  S S E  S S    W                 
-------------------|----------------------------|-------------------|
-------------------|--------------3------1------|-------------------|
--4----------------|--L----L------2------0------|--4----------------|
--5----------------|--L----L--x-x-4--x-x-2--x-x-|--5----------------|
--5----------------|--L----L--x-x----x-x----x-x-|--5----------------|
--3----------------|--L----L--------------------|--3----------------|


  Q    E  S S E  S S E  S S    W                   Q    E  S S E  S S E  S S   
----------------------------|-------------------|----------------------------||
--------------3------1------|-------------------|--------------3------1------||
--L----L------2------0------|--4----------------|--L----L------2------0------||
--L----L--x-x-4--x-x-2--x-x-|--5----------------|--L----L--x-x-4--x-x-2--x-x-||
--L----L--x-x----x-x----x-x-|--5----------------|--L----L--x-x----x-x----x-x-||
--L----L--------------------|--3----------------|--L----L--------------------||




============================================================================
============================================================================


Guitar 2



D#||-------|-------|-------|-------|-------|-------|-------|-------|-------|
A#||-------|-------|-------|-------|-------|-------|-------|-------|-------|
F#||-------|-------|-------|-------|-------|-------|-------|-------|-------|
C#||-------|-------|-------|-------|-------|-------|-------|-------|-------|
G#||-------|-------|-------|-------|-------|-------|-------|-------|-------|
D#||-------|-------|-------|-------|-------|-------|-------|-------|-------|


                                  E  E  E  E  E  E  E  E   
-------|-------|-------|-------|--------------------------|
-------|-------|-------|-------|--7--7--7--7--7--7--7--7--|
-------|-------|-------|-------|--7--7--7--7--7--7--7--7--|
-------|-------|-------|-------|--7--7--7--7--7--7--7--7--|
-------|-------|-------|-------|--5--5--5--5--5--5--5--5--|
-------|-------|-------|-------|--------------------------|


  E  E  E  E  E  E  E  E     E  E  E  E  E  E  E  E   
--------------------------|--------------------------|
--5--5--5--5--5--5--5--5--|--------------------------|
--5--5--5--5--5--5--5--5--|--4--4--4--4--4--4--4--4--|
--5--5--5--5--5--5--5--5--|--5--5--5--5--5--5--5--5--|
--3--3--3--3--3--3--3--3--|--5--5--5--5--5--5--5--5--|
--------------------------|--3--3--3--3--3--3--3--3--|


  E  E  E  E  E  E  E  E     E  E  E  E  E  E  E  E   
--------------------------|--------------------------|
--------------------------|--7--7--7--7--7--7--7--7--|
--4--4--4--4--4--4--4--4--|--7--7--7--7--7--7--7--7--|
--5--5--5--5--5--5--5--5--|--7--7--7--7--7--7--7--7--|
--5--5--5--5--5--5--5--5--|--5--5--5--5--5--5--5--5--|
--3--3--3--3--3--3--3--3--|--------------------------|


  E  E  E  E  E  E  E  E     E  E  E  E  E  E  E  E   
--------------------------|--------------------------|
--5--5--5--5--5--5--5--5--|--------------------------|
--5--5--5--5--5--5--5--5--|--4--4--4--4--4--4--4--4--|
--5--5--5--5--5--5--5--5--|--5--5--5--5--5--5--5--5--|
--3--3--3--3--3--3--3--3--|--5--5--5--5--5--5--5--5--|
--------------------------|--3--3--3--3--3--3--3--3--|


  E  E  E  E  E  E  E  E     E  E  E  E  E  E  E  E   
--------------------------|--------------------------|
--------------------------|--7--7--7--7--7--7--7--7--|
--4--4--4--4--4--4--4--4--|--7--7--7--7--7--7--7--7--|
--5--5--5--5--5--5--5--5--|--7--7--7--7--7--7--7--7--|
--5--5--5--5--5--5--5--5--|--5--5--5--5--5--5--5--5--|
--3--3--3--3--3--3--3--3--|--------------------------|


  E  E  E  E  E  E  E  E      S  S S S S S  S  S  S  S  S S  E.    S   
--------------------------|-------------------------------------------|
--5--5--5--5--5--5--5--5--|--10p-0-0-8-0-0-12-13-12-13-12---12~----L\-|
--5--5--5--5--5--5--5--5--|-------------------------------------------|
--5--5--5--5--5--5--5--5--|-------------------------------------------|
--3--3--3--3--3--3--3--3--|-------------------------------------------|
--------------------------|-------------------------------------------|


   S  S S S S S  S  S H            S  S S S S S  S  S  S  S  S S  E.    S   
-------------------------------|-------------------------------------------|
--10p-0-0-8-0-0-10p-8----------|--10p-0-0-8-0-0-12-13-12-13-12---12~----L\-|
-------------------------------|-------------------------------------------|
-------------------------------|-------------------------------------------|
-------------------------------|-------------------------------------------|
-------------------------------|-------------------------------------------|


   S  S S S S S  S  S H                                                         
-------------------------------|-----------|-----------|-----------|-----------|
--10p-0-0-8-0-0-10p-8----------|-----------|-----------|-----------|-----------|
-------------------------------|-----------|-----------|-----------|-----------|
-------------------------------|-----------|-----------|-----------|-----------|
-------------------------------|-----------|-----------|-----------|-----------|
-------------------------------|-----------|-----------|-----------|-----------|


                                                  E  E  E  E  E  E  E  E   
-----------|-----------|-----------|-----------|--------------------------|
-----------|-----------|-----------|-----------|--7--7--7--7--7--7--7--7--|
-----------|-----------|-----------|-----------|--7--7--7--7--7--7--7--7--|
-----------|-----------|-----------|-----------|--7--7--7--7--7--7--7--7--|
-----------|-----------|-----------|-----------|--5--5--5--5--5--5--5--5--|
-----------|-----------|-----------|-----------|--------------------------|


  E  E  E  E  E  E  E  E     E  E  E  E  E  E  E  E   
--------------------------|--------------------------|
--5--5--5--5--5--5--5--5--|--------------------------|
--5--5--5--5--5--5--5--5--|--4--4--4--4--4--4--4--4--|
--5--5--5--5--5--5--5--5--|--5--5--5--5--5--5--5--5--|
--3--3--3--3--3--3--3--3--|--5--5--5--5--5--5--5--5--|
--------------------------|--3--3--3--3--3--3--3--3--|


  E  E  E  E  E  E  E  E     E  E  E  E  E  E  E  E   
--------------------------|--------------------------|
--------------------------|--7--7--7--7--7--7--7--7--|
--4--4--4--4--4--4--4--4--|--7--7--7--7--7--7--7--7--|
--5--5--5--5--5--5--5--5--|--7--7--7--7--7--7--7--7--|
--5--5--5--5--5--5--5--5--|--5--5--5--5--5--5--5--5--|
--3--3--3--3--3--3--3--3--|--------------------------|


  E  E  E  E  E  E  E  E     E  E  E  E  E  E  E  E   
--------------------------|--------------------------|
--5--5--5--5--5--5--5--5--|--------------------------|
--5--5--5--5--5--5--5--5--|--4--4--4--4--4--4--4--4--|
--5--5--5--5--5--5--5--5--|--5--5--5--5--5--5--5--5--|
--3--3--3--3--3--3--3--3--|--5--5--5--5--5--5--5--5--|
--------------------------|--3--3--3--3--3--3--3--3--|


  E  E  E  E  E  E  E  E     E  E  E  E  E  E  E  E   
--------------------------|--------------------------|
--------------------------|--7--7--7--7--7--7--7--7--|
--4--4--4--4--4--4--4--4--|--7--7--7--7--7--7--7--7--|
--5--5--5--5--5--5--5--5--|--7--7--7--7--7--7--7--7--|
--5--5--5--5--5--5--5--5--|--5--5--5--5--5--5--5--5--|
--3--3--3--3--3--3--3--3--|--------------------------|


  E  E  E  E  E  E  E  E     W                   W                 
--------------------------|-------------------|-------------------|
--5--5--5--5--5--5--5--5--|-------------------|-------------------|
--5--5--5--5--5--5--5--5--|-------------------|-------------------|
--5--5--5--5--5--5--5--5--|-------------------|-------------------|
--3--3--3--3--3--3--3--3--|-------------------|-------------------|
--------------------------|-------------------|-------------------|


   Q        E  E   E   E  Q        Q        E  E   E   E  Q     
-------------------------------|-------------------------------|
--15pbr------------------------|--15pbr------------------------|
-----------16-----14--16-------|-----------16-----14--16-------|
-------------------------------|-------------------------------|
-------------------------------|-------------------------------|
-------------------------------|-------------------------------|


   Q        E  E   E   E  Q        Q        E  E   E   E   Q     
-------------------------------|--------------------------------|
--15pbr------------------------|--15pbr-------------------------|
-----------16-----14-----------|-----------16-----14------------|
----------------------17-------|----------------------17--17----|
-------------------------------|--------------------------------|
-------------------------------|--------------------------------|


  E  S S E  S S E  E  E  S S    E  S S E  S S E  S S E  S S  
-----------------------------|------------------------------|
-----------------------------|----------------3------1------|
--4--4-4-4--4-4-4--4--4--4-4-|--4--4-4-4------2------0------|
--5--5-5-5--5-5-5--5--5--5-5-|--5--5-5-5--x-x-4--x-x-2--x-x-|
--5--5-5-5--5-5-5--5--5--5-5-|--5--5-5-5--x-x----x-x----x-x-|
--3--3-3-3--3-3-3--3--3--3-3-|--3--3-3-3--------------------|


  E  S S E  S S E  E  E  S S    E  S S E  S S E  S S E  S S  
-----------------------------|------------------------------|
-----------------------------|----------------3------1------|
--4--4-4-4--4-4-4--4--4--4-4-|--4--4-4-4------2------0------|
--5--5-5-5--5-5-5--5--5--5-5-|--5--5-5-5--x-x-4--x-x-2--x-x-|
--5--5-5-5--5-5-5--5--5--5-5-|--5--5-5-5--x-x----x-x----x-x-|
--3--3-3-3--3-3-3--3--3--3-3-|--3--3-3-3--------------------|


  E  S S E  S S E  E  E  S S    E  S S E  S S E  S S E  S S  
-----------------------------|------------------------------|
-----------------------------|----------------3------1------|
--4--4-4-4--4-4-4--4--4--4-4-|--4--4-4-4------2------0------|
--5--5-5-5--5-5-5--5--5--5-5-|--5--5-5-5--x-x-4--x-x-2--x-x-|
--5--5-5-5--5-5-5--5--5--5-5-|--5--5-5-5--x-x----x-x----x-x-|
--3--3-3-3--3-3-3--3--3--3-3-|--3--3-3-3--------------------|


  E  S S E  S S E  E  E  S S    W                   E  E  E  E  E  E  E  E   
-----------------------------|-------------------|--------------------------|
-----------------------------|-------------------|--7--7--7--7--7--7--7--7--|
--4--4-4-4--4-4-4--4--4--4-4-|-------------------|--7--7--7--7--7--7--7--7--|
--5--5-5-5--5-5-5--5--5--5-5-|-------------------|--7--7--7--7--7--7--7--7--|
--5--5-5-5--5-5-5--5--5--5-5-|-------------------|--5--5--5--5--5--5--5--5--|
--3--3-3-3--3-3-3--3--3--3-3-|-------------------|--------------------------|


  E  E  E  E  E  E  E  E     E  E  E  E  E  E  E  E   
--------------------------|--------------------------|
--5--5--5--5--5--5--5--5--|--------------------------|
--5--5--5--5--5--5--5--5--|--4--4--4--4--4--4--4--4--|
--5--5--5--5--5--5--5--5--|--5--5--5--5--5--5--5--5--|
--3--3--3--3--3--3--3--3--|--5--5--5--5--5--5--5--5--|
--------------------------|--3--3--3--3--3--3--3--3--|


  E  E  E  E  E  E  E  E     E  E  E  E  E  E  E  E   
--------------------------|--------------------------|
--------------------------|--7--7--7--7--7--7--7--7--|
--4--4--4--4--4--4--4--4--|--7--7--7--7--7--7--7--7--|
--5--5--5--5--5--5--5--5--|--7--7--7--7--7--7--7--7--|
--5--5--5--5--5--5--5--5--|--5--5--5--5--5--5--5--5--|
--3--3--3--3--3--3--3--3--|--------------------------|


  E  E  E  E  E  E  E  E     E  E  E  E  E  E  E  E   
--------------------------|--------------------------|
--5--5--5--5--5--5--5--5--|--------------------------|
--5--5--5--5--5--5--5--5--|--4--4--4--4--4--4--4--4--|
--5--5--5--5--5--5--5--5--|--5--5--5--5--5--5--5--5--|
--3--3--3--3--3--3--3--3--|--5--5--5--5--5--5--5--5--|
--------------------------|--3--3--3--3--3--3--3--3--|


  E  E  E  E  E  E  E  E     E  E  E  E  E  E  E  E   
--------------------------|--------------------------|
--------------------------|--7--7--7--7--7--7--7--7--|
--4--4--4--4--4--4--4--4--|--7--7--7--7--7--7--7--7--|
--5--5--5--5--5--5--5--5--|--7--7--7--7--7--7--7--7--|
--5--5--5--5--5--5--5--5--|--5--5--5--5--5--5--5--5--|
--3--3--3--3--3--3--3--3--|--------------------------|


  E  E  E  E  E  E  E  E     E  E  E  E  E  E  E  E   
--------------------------|--------------------------|
--5--5--5--5--5--5--5--5--|--------------------------|
--5--5--5--5--5--5--5--5--|--4--4--4--4--4--4--4--4--|
--5--5--5--5--5--5--5--5--|--5--5--5--5--5--5--5--5--|
--3--3--3--3--3--3--3--3--|--5--5--5--5--5--5--5--5--|
--------------------------|--3--3--3--3--3--3--3--3--|


  E  E  E  E  E  E  E  E     E  E  E  E  E  E  E  E   
--------------------------|--------------------------|
--------------------------|--7--7--7--7--7--7--7--7--|
--4--4--4--4--4--4--4--4--|--7--7--7--7--7--7--7--7--|
--5--5--5--5--5--5--5--5--|--7--7--7--7--7--7--7--7--|
--5--5--5--5--5--5--5--5--|--5--5--5--5--5--5--5--5--|
--3--3--3--3--3--3--3--3--|--------------------------|


  E  E  E  E  E  E  E  E      S  S S S S S  S  S  S  S  S S  E.    S   
--------------------------|-------------------------------------------|
--5--5--5--5--5--5--5--5--|--10p-0-0-8-0-0-12-13-12-13-12---12~----L\-|
--5--5--5--5--5--5--5--5--|-------------------------------------------|
--5--5--5--5--5--5--5--5--|-------------------------------------------|
--3--3--3--3--3--3--3--3--|-------------------------------------------|
--------------------------|-------------------------------------------|


   S  S S S S S  S  S H            S  S S S S S  S  S  S  S  S S  E.    S   
-------------------------------|-------------------------------------------|
--10p-0-0-8-0-0-10p-8----------|--10p-0-0-8-0-0-12-13-12-13-12---12~----L\-|
-------------------------------|-------------------------------------------|
-------------------------------|-------------------------------------------|
-------------------------------|-------------------------------------------|
-------------------------------|-------------------------------------------|


   S  S S S S S  S  S H            S  S S S S S  S  S  S  S  S S  E.    S   
-------------------------------|-------------------------------------------|
--10p-0-0-8-0-0-10p-8----------|--10p-0-0-8-0-0-12-13-12-13-12---12~----L\-|
-------------------------------|-------------------------------------------|
-------------------------------|-------------------------------------------|
-------------------------------|-------------------------------------------|
-------------------------------|-------------------------------------------|


   S  S S S S S  S  S H            S  S S S S S  S  S  S  S  S S  E.    S   
-------------------------------|-------------------------------------------|
--10p-0-0-8-0-0-10p-8----------|--10p-0-0-8-0-0-12-13-12-13-12---12~----L\-|
-------------------------------|-------------------------------------------|
-------------------------------|-------------------------------------------|
-------------------------------|-------------------------------------------|
-------------------------------|-------------------------------------------|


   S  S S S S S  S  S H          
-------------------------------||
--10p-0-0-8-0-0-10p-8----------||
-------------------------------||
-------------------------------||
-------------------------------||
-------------------------------||




============================================================================
============================================================================



Guitar 3



D#||-------|-------|-------|-------|-------|-------|-------|-------|-------|
A#||-------|-------|-------|-------|-------|-------|-------|-------|-------|
F#||-------|-------|-------|-------|-------|-------|-------|-------|-------|
C#||-------|-------|-------|-------|-------|-------|-------|-------|-------|
G#||-------|-------|-------|-------|-------|-------|-------|-------|-------|
D#||-------|-------|-------|-------|-------|-------|-------|-------|-------|


-------|-------|-------|-------|-------|-------|-------|-------|-------|-------|
-------|-------|-------|-------|-------|-------|-------|-------|-------|-------|
-------|-------|-------|-------|-------|-------|-------|-------|-------|-------|
-------|-------|-------|-------|-------|-------|-------|-------|-------|-------|
-------|-------|-------|-------|-------|-------|-------|-------|-------|-------|
-------|-------|-------|-------|-------|-------|-------|-------|-------|-------|


-------|-------|-------|-------|-------|-------|-------|-------|-------|-------|
-------|-------|-------|-------|-------|-------|-------|-------|-------|-------|
-------|-------|-------|-------|-------|-------|-------|-------|-------|-------|
-------|-------|-------|-------|-------|-------|-------|-------|-------|-------|
-------|-------|-------|-------|-------|-------|-------|-------|-------|-------|
-------|-------|-------|-------|-------|-------|-------|-------|-------|-------|


-------|-------|-------|-------|-------|-------|-------|-------|
-------|-------|-------|-------|-------|-------|-------|-------|
-------|-------|-------|-------|-------|-------|-------|-------|
-------|-------|-------|-------|-------|-------|-------|-------|
-------|-------|-------|-------|-------|-------|-------|-------|
-------|-------|-------|-------|-------|-------|-------|-------|


   E   E   E.   S  E   E   E.   S     E   E   E.   S  E   E   E   E           
----------------------------------|----------------------15------15--|-------|
--13--12----------13--12----------|--13--12----------13------13------|-------|
---------------12--------------12-|---------------12-----------------|-------|
----------12--------------12------|----------12----------------------|-------|
----------------------------------|----------------------------------|-------|
----------------------------------|----------------------------------|-------|


           E   E   E.   S  E   E   E.   S     E   E   E.   S  E   E   E   E   
-------|----------------------------------|----------------------15------15--|
-------|--13--12----------13--12----------|--13--12----------13------13------|
-------|---------------12--------------12-|---------------12-----------------|
-------|----------12--------------12------|----------12----------------------|
-------|----------------------------------|----------------------------------|
-------|----------------------------------|----------------------------------|


-------|-------|-------|-------|-------|-------|-------|-------|-------|-------|
-------|-------|-------|-------|-------|-------|-------|-------|-------|-------|
-------|-------|-------|-------|-------|-------|-------|-------|-------|-------|
-------|-------|-------|-------|-------|-------|-------|-------|-------|-------|
-------|-------|-------|-------|-------|-------|-------|-------|-------|-------|
-------|-------|-------|-------|-------|-------|-------|-------|-------|-------|


-------|-------|-------|-------|-------|-------|-------|-------|
-------|-------|-------|-------|-------|-------|-------|-------|
-------|-------|-------|-------|-------|-------|-------|-------|
-------|-------|-------|-------|-------|-------|-------|-------|
-------|-------|-------|-------|-------|-------|-------|-------|
-------|-------|-------|-------|-------|-------|-------|-------|


   E   E   E.   S  E   E   E.   S     E   E   E.   S  E   E   E   E           
----------------------------------|----------------------15------15--|-------|
--13--12----------13--12----------|--13--12----------13------13------|-------|
---------------12--------------12-|---------------12-----------------|-------|
----------12--------------12------|----------12----------------------|-------|
----------------------------------|----------------------------------|-------|
----------------------------------|----------------------------------|-------|


           E   E   E.   S  E   E   E.   S     E   E   E.   S  E   E   E   E   
-------|----------------------------------|----------------------15------15--|
-------|--13--12----------13--12----------|--13--12----------13------13------|
-------|---------------12--------------12-|---------------12-----------------|
-------|----------12--------------12------|----------12----------------------|
-------|----------------------------------|----------------------------------|
-------|----------------------------------|----------------------------------|


                   E   E   E.   S  E   E   E.   S  
-------|-------|----------------------------------|
-------|-------|--13--12----------13--12----------|
-------|-------|---------------12--------------12-|
-------|-------|----------12--------------12------|
-------|-------|----------------------------------|
-------|-------|----------------------------------|


   E   E   E.   S  E   E   E   E                                           
----------------------15------15--|-------|-------|-------|-------|-------|
--13--12----------13------13------|-------|-------|-------|-------|-------|
---------------12-----------------|-------|-------|-------|-------|-------|
----------12----------------------|-------|-------|-------|-------|-------|
----------------------------------|-------|-------|-------|-------|-------|
----------------------------------|-------|-------|-------|-------|-------|


-------|-------|-------|-------|-------||
-------|-------|-------|-------|-------||
-------|-------|-------|-------|-------||
-------|-------|-------|-------|-------||
-------|-------|-------|-------|-------||
-------|-------|-------|-------|-------||




Duration Legend
---------------
W - whole
H - half
Q - quarter
E - 8th
S - 16th
T - 32nd
X - 64th
. - note dotted
|-n-|  - n-tuplets


Tablature Legend
----------------
L - tied note
x - dead note
g - grace note
(n) - ghost note
> - accentuded note
NH - natural harmonic
AH - artificial harmonic
TH - tapped harmonic
SH - semi harmonic
PH - pitch harmonic
h - hammer on
p - pull off
b - bend
br - bendRelease
pb - preBend
pbr - preBendRelease
brb - bendReleaseBend
\n/ - tremolo bar dip
\n - tremolo bar dive
-/n - tremolo bar Release up
/n\ - tremolo bar inverted dip
/n - tremolo bar return
-\n - tremolo bar Release down
S - shift slide
s - legato slide
/ -  slide into from below or out of upwards
\ -  slide into from above or out of downwards
~ - vibrato
W - wide vibrato
tr - trill
TP - tremolo picking
T - tapping
S - slap
P - pop
< - fade in
^ - brush up
v - brush down





Comments


Popular Collective Soul tabs & chords
Heavy 2 Bass Tabs
The World I Know  2 Bass Tabs
Hollywood 1 Chords
Run Chords
Bearing Witness Tabs
Blame 1 Tabs
Blame Intro Tabs
Burning Bridges Tabs
After All Ukulele
Good Morning After All Ukulele


Song lyrics



↑ Back to top | Tablatures and chords are parodies/interpretations of the original songs. You may use it for private study, scholarship, research or language learning purposes only
© 2014 AZChords.com Contact us | Privacy policy | DMCA | Add/correct tabs | Request tabs | Top 50 tabs