» » »

Listen Tabs (ver.1)

Artists:  A B C D E F G H I J K L M N O P Q R S T U V W X Y Z # 

Listen Tabs (ver.1)

Collective Soul
Rating:
0/5 (0 votes)

Hard to play? Try these video lessons and learn fast.
                This song is pretty cool and it's not bad for guitar either.
I'm pretty sure it's right but if you have any beef with it 
or something positive to say about it than e-mail me.

Intro/Verse:
E|--------------------||
B|--------------3p2---||
G|-----4p2-6~~22---2~-||
D|--------------------||
A|-0~00---0-----------||
E|--------------------||

Pre-Chorus:  
E|-5~~~~~8~7~5~~~~~5x750x00000-------------/8~7~5~~~~~8~7~5~~~~|
B|-------------^--------------5~~3~~2~~------------------------|
G|------------PM-----------------------4~~~--------------------|
D|-------------------------------------------------------------|
A|-------------------------------------------------------------|
E|-------------------------------------------------------------|

E|-x5x5x5x5x5x555555555555555555\-||
B|--------------------------------||
G|--------------------------------||
D|--------------------------------||
A|--------------------------------||
E|--------------------------------||

Chorus:
E|---------------2~--------------------|
B|---------------3~--------------------|
G|-2-2-/11~\-4-4-2~-7-7-7-7-7-7-7-7-xx-|
D|-2-2-/11~\-4-4----7-7-7-7-7-7-7-7-xx-|
A|-0-0-------2-2----5-5-5-5-5-5-5-5-xx-|
E|-------------------------------------|

E|---------------2~-------------|
B|---------------3~-------------|
G|-2-2-/11~\-4-4-2~-7-7-7-7-7-7-|
D|-2-2-/11~\-4-4----7-7-7-7-7-7-|
A|-0-0-------2-2----5-5-5-5-5-5-|
E|------------------------------|

E|---------------2~----------------------------------||
B|---------------3~----------------------------------||
G|-2-2-/11~\-4-4-2~-7-7-7-7-7-7-xx-------------------||
D|-2-2-/11~\-4-4----7-7-7-7-7-7-xx-3-3-3-xx-5-5-5-xx-||
A|-0-0-------2-2----5-5-5-5-5-5-xx-3-3-3-xx-5-5-5-xx-||
E|---------------------------------1-1-1-xx-3-3-3-xx-||

Interlude:
E|-----|    |-----||
B|-----|    |-----||
G|-4-4-| 4x |--7--||
D|-4-4-|Then|--7--||
A|-2-2-|    |--5--||
E|-----|    |-----||

Solo: It's A Lot Faster Than It's Shown Here
E|-------------------------------------------------------------|
B|---------------------15p14-------------------------15p14-----|
G|-14~141416p141418~14~-----141414~141416p141418~1414-----1414-|
D|-------------------------------------------------------------|
A|-------------------------------------------------------------|
E|-------------------------------------------------------------|

E|----------------------------------------------------------|
B|----------------------15p14--17p15p1414---17p15p14~17~15~-|
G|-14~141416p141418~1414-----14----------14~----------------|
D|----------------------------------------------------------|
A|----------------------------------------------------------|
E|----------------------------------------------------------|

E|-------------------------------------------------------------|
B|-14h15p14----------------------15p14-------------------------|
G|---------16~14~141416p1418~1414-----141414~141416p141418~1414|
D|-------------------------------------------------------------|
A|-------------------------------------------------------------|
E|-------------------------------------------------------------|

E|-------------------------------------------------------------|
B|-15p14----------141415p141415~14h15p14-----17~------17~------|
G|------1414141616----------------------1614~---14~14~---14~14~|
D|-------------------------------------------------------------|
A|-------------------------------------------------------------|
E|-------------------------------------------------------------|

E|------------||
B|-17~--------||
G|----14~14~~~||
D|------------||
A|------------||
E|------------||

Outro:
E|--------------------|    |-----|
B|-------------3p2----|    |-----|
G|-2-2-4p2-6~22---2~~-| 4X |--2~-|
D|-2-2----------------|Then|--2~-|
A|-0-0----0-----------|    |--0~-|
E|--------------------|    |-----|

Here's The Order:

Intro/Verse: (00:00)14x
Pre-Chorus:  (00:34) 1x
Chorus:      (00:53) 1x
Intro/Verse: (01:10)12x
Pre-Chorus:  (01:40) 1x
Chorus:      (01:59) 1x
Intro/Verse: (02:16) 4x 
Interlude:   (02:25) 2x
Intro/Verse: (02:45) 4x 
Solo:        (02:55) 1x
Chorus:      (03:14) 2x
Outro:       (03:48) 1x
            
Hard to play? Try these video lessons and learn fast. | Correct




comments powered by Disqus
↑ Back to top | Tablatures and chords are parodies/interpretations of the original songs. You may use it for private study, scholarship, research or language learning purposes only