» » »

Collective Soul, In A Moment Tabs (ver.1)

Artists:  A B C D E F G H I J K L M N O P Q R S T U V W X Y Z # 

In A Moment Tabs (ver.1)

Collective Soul Tabs
 Rating:
4/5 (4 votes)
In A Moment lessons Tabs too difficult? Try these video lessons and learn fast
                
Standard tuning.

INTRO: D G

INTRO/FIRST RIFF
|--------------------10---------------------------------|
|-------------------------------------------------------| 
|11h12p11-----------------11h12p11--------11h12p11------|
|---------14-12--12----------------14-12----------------|
|-------------------------------------------------------|
|-------------------------------------------------------|

SECOND RIFF
|------------------------------------------------------------|
|------------------------------------------------------------|
|------------------------------------------------------------|
|---------12---------------12------------12---------------14-|
|12/14-14-10-12---12/14-14-10---12/14-14-10-12---12/14-14-12-|
|10/12-12----10---10/12-12------10/12-12----10---10/12-12----|

|------------------------------------------------------------|
|------------------------------------------------------------|
|------------------------------------------------------------|
|---------12---------------12------------12------12\9-9\7-7--|
|12/14-14-10-12---12/14-14-10---12/14-14-10-12---10\7-7\5-5--|
|10/12-12----10---10/12-12------10/12-12----10---------------|

D                                                  G
the walls came up as the thoughts went down to the hush of disparity
sure we know the problem lies with some insecurites
E                   G             D           G
but we'll never see eye to eye as long as our tongues are tied
and we'll never be seen as one until we find love

D                            G
in a moment it could happen, we could wake up and be laughing
in a moment it could happen, we could forgive and be happy

it's a shame our world responds to life as a puzzle in disguise
i wish our course would lead us towards the peace and loving kind
but we'll never walk hand in hand until we let old wounds mend
and we'll never sing songs as one until we find love

G                D      A     D  G
in a moment some wisdom could be learned
in a moment new voices could be heard
in a moment we could make heads turn
G           B  E     D
in a moment we could change
            
Submit corrections

comments powered by Disqus
↑ Back to top | Collective Soul Tabs for In A Moment. Lyrics for acoustic guitar and electric guitar. Tablatures and chords are parodies/interpretations of the original songs. You may use it for private study, scholarship, research or language learning purposes only