>
 >
Dig

Dig Guitar Tabs

Collective Soul - Dig chords, tabs, tablatures, lyrics

Guitar lessons | Add/correct | Request | Top 50 tabs Artists:  A B C D E F G H I J K L M N O P Q R S T U V W X Y Z 0-9

Dig Guitar Tabs – Collective Soul

CD, Sheet music, Poster

Do you like Dig? Share with your friends now
Tabs
Collective Soul
Collective Soul (2009)

Dig:  written by Ed Roland and Collective Soul

NOTE: I could not figure out the solo, but the rest is there.

GTR I - Eb Tuning (eb,Bb,Gb,Db,Ab,Eb)
GTR II - Eb Tuning (eb,Bb,Gb,Db,Ab,Eb)
GTR III - Eb Tuning (eb,Bb,Gb,Db,Ab,Eb)
GTR IV - Eb Tuning (eb,Bb,Gb,Db,Ab,Eb)
GTR V - Eb Tuning "Low Octave Pedal" (eb,Bb,Gb,Db,Ab,Eb)

Intro

   GTR I
eb|-------------------------------------------------|
Bb|--6--3-------------------------------------------|
Gb|--------0--3--0-----------0-----3--0--------3--0-|
Db|-----------------0--0--3-----3-------------------|
Ab|-------------------------------------------------|
Eb|-------------------------------------------------|

   GTR I
eb|-------------------------------------------------|
Bb|--6--3-------------------------------------------|
Gb|--------0--3--0-----------0----------------------|
Db|-----------------0--0--3-----3--3-----3-----3----|
Ab|-----------------------------3--3-----3-----3----|
Eb|-----------------------------1--1-----1-----1----|
  |
  |GTR II
eb|-------------------------------------------------|
Bb|-------------------------------------------------|
Gb|----------------------------10-10----10----10----|
Db|----------------------------10-10----10----10----|
Ab|-----------------------------8--8-----8-----8----|
Eb|-------------------------------------------------|

   GTR I
eb|-------------------------------------------------|
Bb|--6--3-------------------------------------------|
Gb|--------0--3--0-----------0-----3--0--------3--0-|
Db|-----------------0--0--3-----3-------------------|
Ab|-------------------------------------------------|
Eb|-------------------------------------------------|
  |
  |GTR II
eb|-13-10-------------------------------------------|
Bb|--------8-11--8-----------8----11--8-------11--8-|
Gb|-----------------7--7-10----10-------------------|
Db|-------------------------------------------------|
Ab|-------------------------------------------------|
Eb|-------------------------------------------------|

   GTR I
eb|-------------------------------------------------|
Bb|--6--3-------------------------------------------|
Gb|--------0--3--0-----------0----------------------|
Db|-----------------0--0--3-----3--3-----3-----3----|
Ab|-----------------------------3--3-----3-----3----|
Eb|-----------------------------1--1-----1-----1----|
  |
  |GTR II
eb|-13-10-------------------------------------------|
Bb|--------8-11--8-----------8----------------------|
Gb|-----------------7--7-10----10-10----10----10----|
Db|----------------------------10-10----10----10----|
Ab|-----------------------------8--8-----8-----8----|
Eb|-------------------------------------------------|

Verse

   GTR I,II
eb|-------------------------------------------------|
Bb|-------------------------------------------------|
Gb|-------------------------------------------------|
Db|-------------------------------------------------|
Ab|-------------------------------------------------|
Eb|-------------------------------------------------|

   GTR I
eb|-------------------------------------------------|
Bb|-------------------------------------------------|
Gb|-------------------------------------------------|
Db|-----------------------------3--3-----3-----3----|
Ab|-----------------------------3--3-----3-----3----|
Eb|-----------------------------1--1-----1-----1----|
  |
  |GTR II
eb|-------------------------------------------------|
Bb|-------------------------------------------------|
Gb|----------------------------10-10----10----10----|
Db|----------------------------10-10----10----10----|
Ab|-----------------------------8--8-----8-----8----|
Eb|-------------------------------------------------|

   GTR I,II
eb|-------------------------------------------------|
Bb|-------------------------------------------------|
Gb|-------------------------------------------------|
Db|-------------------------------------------------|
Ab|-------------------------------------------------|
Eb|-------------------------------------------------|

   GTR I
eb|-------------------------------------------------|
Bb|-------------------------------------------------|
Gb|-------------------------------------------------|
Db|-----------------------------3--3-----3-----3----|
Ab|-----------------------------3--3-----3-----3----|
Eb|-----------------------------1--1-----1-----1----|
  |
  |GTR II
eb|-------------------------------------------------|
Bb|-------------------------------------------------|
Gb|----------------------------10-10----10----10----|
Db|----------------------------10-10----10----10----|
Ab|-----------------------------8--8-----8-----8----|
Eb|-------------------------------------------------|

Chorus

   GTR I,II
eb|-------------------------------------------------|
Bb|-------------------------------------------------|
Gb|--8--8--8--8--8--8--8--8--8--8--8--8--8--8--8--8-|
Db|--8--8--8--8--8--8--8--8--8--8--8--8--8--8--8--8-|
Ab|--6--6--6--6--6--6--6--6--6--6--6--6--6--6--6--6-|
Eb|-------------------------------------------------|

   GTR I,II
eb|-------------------------------------------------|
Bb|-------------------------------------------------|
Gb|--3--3--3--3--3--3--3--3--3--3--3--3--3--3--3--3-|
Db|--3--3--3--3--3--3--3--3--3--3--3--3--3--3--3--3-|
Ab|--1--1--1--1--1--1--1--1--1--1--1--1--1--1--1--1-|
Eb|-------------------------------------------------|

   GTR I,II
eb|-------------------------------------------------|
Bb|-------------------------------------------------|
Gb|-10-10-10-10-10-10-10-10-10-10-10-10-10-10-10-10-|
Db|-10-10-10-10-10-10-10-10-10-10-10-10-10-10-10-10-|
Ab|--8--8--8--8--8--8--8--8--8--8--8--8--8--8--8--8-|
Eb|-------------------------------------------------|

   GTR I,II
eb|-------------------------------------------------|
Bb|-------------------------------------------------|
Gb|--5--5--5--5--5--5--5--5--5--5--5--5--5--5--5--5-|
Db|--5--5--5--5--5--5--5--5--5--5--5--5--5--5--5--5-|
Ab|--3--3--3--3--3--3--3--3--3--3--3--3--3--3--3--3-|
Eb|-------------------------------------------------|

Pre Verse

   GTR I
eb|-------------------------------------------------|
Bb|--6--3-------------------------------------------|
Gb|--------0--3--0-----------0-----3--0--------3--0-|
Db|-----------------0--0--3-----3-------------------|
Ab|-------------------------------------------------|
Eb|-------------------------------------------------|
  |
  |GTR II
eb|-13-10-------------------------------------------|
Bb|--------8-11--8-----------8----11--8-------11--8-|
Gb|-----------------7--7-10----10-------------------|
Db|-------------------------------------------------|
Ab|-------------------------------------------------|
Eb|-------------------------------------------------|

   GTR I
eb|-------------------------------------------------|
Bb|--6--3-------------------------------------------|
Gb|--------0--3--0-----------0----------------------|
Db|-----------------0--0--3-----3--3-----3-----3----|
Ab|-----------------------------3--3-----3-----3----|
Eb|-----------------------------1--1-----1-----1----|
  |
  |GTR II
eb|-13-10-------------------------------------------|
Bb|--------8-11--8-----------8----------------------|
Gb|-----------------7--7-10----10-10----10----10----|
Db|----------------------------10-10----10----10----|
Ab|-----------------------------8--8-----8-----8----|
Eb|-------------------------------------------------|

   GTR I
eb|-------------------------------------------------|
Bb|--6--3-------------------------------------------|
Gb|--------0--3--0-----------0-----3--0--------3--0-|
Db|-----------------0--0--3-----3-------------------|
Ab|-------------------------------------------------|
Eb|-------------------------------------------------|
  |
  |GTR II
eb|-13-10-------------------------------------------|
Bb|--------8-11--8-----------8----11--8-------11--8-|
Gb|-----------------7--7-10----10-------------------|
Db|-------------------------------------------------|
Ab|-------------------------------------------------|
Eb|-------------------------------------------------|
  |
  |GTR III
eb|-------------------------------------------------|
Bb|-------------------------------------------------|
Gb|-------------------------------------------------|
Db|-------------------------------------------------|
Ab|--5--5--5--5--5--5--5--5--5--5--5--5--5--5--5--5-|
Eb|--3--3--3--3--3--3--3--3--3--3--3--3--3--3--3--3-|
  |  .  .  .  .  .  .  .  .  .  .  .  .  .  .  .  .
  |GTR IV
eb|-------------------------------------------------|
Bb|--8\---------------------------------------------|
Gb|--7\---------------------------------------------|
Db|-------------------------------------------------|
Ab|-------------------------------------------------|
Eb|-------------------------------------------------|

   GTR I
eb|-------------------------------------------------|
Bb|--6--3-------------------------------------------|
Gb|--------0--3--0-----------0----------------------|
Db|-----------------0--0--3-----3--3-----3-----3----|
Ab|-----------------------------3--3-----3-----3----|
Eb|-----------------------------1--1-----1-----1----|
  |
  |GTR II
eb|-13-10-------------------------------------------|
Bb|--------8-11--8-----------8----------------------|
Gb|-----------------7--7-10----10-10----10----10----|
Db|----------------------------10-10----10----10----|
Ab|-----------------------------8--8-----8-----8----|
Eb|-------------------------------------------------|
  |
  |GTR III
eb|-------------------------------------------------|
Bb|-------------------------------------------------|
Gb|-------------------------------------------------|
Db|-------------------------------------------------|
Ab|--5--5--5--5--5--5--5--5--5--3--3--3--3--3--3--3-|
Eb|--3--3--3--3--3--3--3--3--3--1--1--1--1--1--1--1-|
  |  .  .  .  .  .  .  .  .  .  .  .  .  .  .  .  .
  |GTR IV
eb|-------------------------------------------------|
Bb|--8\---------------------------------------------|
Gb|--7\---------------------------------------------|
Db|-------------------------------------------------|
Ab|-------------------------------------------------|
Eb|-------------------------------------------------|

Verse 2

   GTR I,II
eb|-------------------------------------------------|
Bb|-------------------------------------------------|
Gb|-------------------------------------------------|
Db|-------------------------------------------------|
Ab|-------------------------------------------------|
Eb|-------------------------------------------------|
  |
  |GTR III
eb|-------------------------------------------------|
Bb|-------------------------------------------------|
Gb|-------------------------------------------------|
Db|-------------------------------------------------|
Ab|--5--5--5--5--5--5--5--5--5--5--5--5--5--5--5--5-|
Eb|--3--3--3--3--3--3--3--3--3--3--3--3--3--3--3--3-|
  |  .  .  .  .  .  .  .  .  .  .  .  .  .  .  .  .
  |GTR IV
eb|-------------------------------------------------|
Bb|--8\---------------------------------------------|
Gb|--7\---------------------------------------------|
Db|-------------------------------------------------|
Ab|-------------------------------------------------|
Eb|-------------------------------------------------|

   GTR I
eb|-------------------------------------------------|
Bb|-------------------------------------------------|
Gb|-------------------------------------------------|
Db|-----------------------------3--3-----3-----3----|
Ab|-----------------------------3--3-----3-----3----|
Eb|-----------------------------1--1-----1-----1----|
  |
  |GTR II
eb|-------------------------------------------------|
Bb|-------------------------------------------------|
Gb|----------------------------10-10----10----10----|
Db|----------------------------10-10----10----10----|
Ab|-----------------------------8--8-----8-----8----|
Eb|-------------------------------------------------|
  |
  |GTR III
eb|-------------------------------------------------|
Bb|-------------------------------------------------|
Gb|-------------------------------------------------|
Db|-------------------------------------------------|
Ab|--5--5--5--5--5--5--5--5--5--3--3--3--3--3--3--3-|
Eb|--3--3--3--3--3--3--3--3--3--1--1--1--1--1--1--1-|
  |  .  .  .  .  .  .  .  .  .  .  .  .  .  .  .  .
  |GTR IV
eb|-------------------------------------------------|
Bb|--8\---------------------------------------------|
Gb|--7\---------------------------------------------|
Db|-------------------------------------------------|
Ab|-------------------------------------------------|
Eb|-------------------------------------------------|

   GTR I,II
eb|-------------------------------------------------|
Bb|-------------------------------------------------|
Gb|-------------------------------------------------|
Db|-------------------------------------------------|
Ab|-------------------------------------------------|
Eb|-------------------------------------------------|
  |
  |GTR III
eb|-------------------------------------------------|
Bb|-------------------------------------------------|
Gb|-------------------------------------------------|
Db|-------------------------------------------------|
Ab|--5--5--5--5--5--5--5--5--5--5--5--5--5--5--5--5-|
Eb|--3--3--3--3--3--3--3--3--3--3--3--3--3--3--3--3-|
  |  .  .  .  .  .  .  .  .  .  .  .  .  .  .  .  .
  |GTR IV
eb|-------------------------------------------------|
Bb|--8\---------------------------------------------|
Gb|--7\---------------------------------------------|
Db|-------------------------------------------------|
Ab|-------------------------------------------------|
Eb|-------------------------------------------------|

   GTR I
eb|-------------------------------------------------|
Bb|-------------------------------------------------|
Gb|-------------------------------------------------|
Db|-----------------------------3--3-----3-----3----|
Ab|-----------------------------3--3-----3-----3----|
Eb|-----------------------------1--1-----1-----1----|
  |
  |GTR II
eb|-------------------------------------------------|
Bb|-------------------------------------------------|
Gb|----------------------------10-10----10----10----|
Db|----------------------------10-10----10----10----|
Ab|-----------------------------8--8-----8-----8----|
Eb|-------------------------------------------------|
  |
  |GTR III
eb|-------------------------------------------------|
Bb|-------------------------------------------------|
Gb|-------------------------------------------------|
Db|-------------------------------------------------|
Ab|--5--5--5--5--5--5--5--5--5--3--3--3--3--3--3--3-|
Eb|--3--3--3--3--3--3--3--3--3--1--1--1--1--1--1--1-|
  |  .  .  .  .  .  .  .  .  .  .  .  .  .  .  .  .
  |GTR IV
eb|-------------------------------------------------|
Bb|--8\---------------------------------------------|
Gb|--7\---------------------------------------------|
Db|-------------------------------------------------|
Ab|-------------------------------------------------|
Eb|-------------------------------------------------|

Chorus 2

   GTR I,II
eb|-------------------------------------------------|
Bb|-------------------------------------------------|
Gb|--8--8--8--8--8--8--8--8--8--8--8--8--8--8--8--8-|
Db|--8--8--8--8--8--8--8--8--8--8--8--8--8--8--8--8-|
Ab|--6--6--6--6--6--6--6--6--6--6--6--6--6--6--6--6-|
Eb|-------------------------------------------------|

   GTR I,II
eb|-------------------------------------------------|
Bb|-------------------------------------------------|
Gb|--3--3--3--3--3--3--3--3--3--3--3--3--3--3--3--3-|
Db|--3--3--3--3--3--3--3--3--3--3--3--3--3--3--3--3-|
Ab|--1--1--1--1--1--1--1--1--1--1--1--1--1--1--1--1-|
Eb|-------------------------------------------------|

   GTR I,II
eb|-------------------------------------------------|
Bb|-------------------------------------------------|
Gb|-10-10-10-10-10-10-10-10-10-10-10-10-10-10-10-10-|
Db|-10-10-10-10-10-10-10-10-10-10-10-10-10-10-10-10-|
Ab|--8--8--8--8--8--8--8--8--8--8--8--8--8--8--8--8-|
Eb|-------------------------------------------------|

   GTR I,II
eb|-------------------------------------------------|
Bb|-------------------------------------------------|
Gb|--5--5--5--5--5--5--5--5--5--5--5--5--5--6--6--7-|
Db|--5--5--5--5--5--5--5--5--5--5--5--5--5--6--6--7-|
Ab|--3--3--3--3--3--3--3--3--3--3--3--3--3--4--4--5-|
Eb|-------------------------------------------------|

   GTR I,II
eb|-------------------------------------------------|
Bb|-------------------------------------------------|
Gb|--8--8--8--8--8--8--8--8--8--8--8--8--8--8--8--8-|
Db|--8--8--8--8--8--8--8--8--8--8--8--8--8--8--8--8-|
Ab|--6--6--6--6--6--6--6--6--6--6--6--6--6--6--6--6-|
Eb|-------------------------------------------------|

   GTR I,II
eb|-------------------------------------------------|
Bb|-------------------------------------------------|
Gb|--3--3--3--3--3--3--3--3--3--3--3--3--3--3--3--3-|
Db|--3--3--3--3--3--3--3--3--3--3--3--3--3--3--3--3-|
Ab|--1--1--1--1--1--1--1--1--1--1--1--1--1--1--1--1-|
Eb|-------------------------------------------------|

   GTR I,II
eb|-------------------------------------------------|
Bb|-------------------------------------------------|
Gb|-10-10-10-10-10-10-10-10-10-10-10-10-10-10-10-10-|
Db|-10-10-10-10-10-10-10-10-10-10-10-10-10-10-10-10-|
Ab|--8--8--8--8--8--8--8--8--8--8--8--8--8--8--8--8-|
Eb|-------------------------------------------------|

   GTR I,II
eb|-------------------------------------------------|
Bb|-------------------------------------------------|
Gb|--5--5--5--5--5--5--5--5--5--5--5--5--5--5--5--5-|
Db|--5--5--5--5--5--5--5--5--5--5--5--5--5--5--5--5-|
Ab|--3--3--3--3--3--3--3--3--3--3--3--3--3--3--3--3-|
Eb|-------------------------------------------------|

Bridge

   GTR I,II,IV
eb|-------------------------------------------------|
Bb|-------------------------------------------------|
Gb|-------------------------------------------------|
Db|-------------------------------------------------|
Ab|-------------------------------------------------|
Eb|-------------------------------------------------|
  |
  |GTR III
eb|-------------------------------------------------|
Bb|-------------------------------------------------|
Gb|-------------------------------------------------|
Db|--5--5--------------------5--5-------------------|
Ab|--5--5--x--x--x--x--x--x--5--5--x--x--x--x--x--x-|
Eb|--3--3--x--x--x--x--x--x--3--3--x--x--x--x--x--x-|

   GTR I,II,IV
eb|-------------------------------------------------|
Bb|-------------------------------------------------|
Gb|-------------------------------------------------|
Db|-------------------------------------------------|
Ab|-------------------------------------------------|
Eb|-------------------------------------------------|
  |
  |GTR III
eb|-------------------------------------------------|
Bb|-------------------------------------------------|
Gb|-------------------------------------------------|
Db|--5--5--------------------5--5-------------------|
Ab|--5--5--x--x--x--x--x--x--5--5--x--x--x--x--x--x-|
Eb|--3--3--x--x--x--x--x--x--3--3--x--x--x--x--x--x-|

   GTR I,II
eb|-------------------------------------------------|
Bb|-------------------------------------------------|
Gb|-------------------------------------------------|
Db|-------------------------------------------------|
Ab|-------------------------------------------------|
Eb|-------------------------------------------------|
  |
  |GTR III,IV
eb|-------------------------------------------------|
Bb|-------------------------------------------------|
Gb|-------------------------------------------------|
Db|--5--5--------------------5--5-------------------|
Ab|--5--5--x--x--x--x--x--x--5--5--x--x--x--x--x--x-|
Eb|--3--3--x--x--x--x--x--x--3--3--x--x--x--x--x--x-|

   GTR I,II
eb|-------------------------------------------------|
Bb|-------------------------------------------------|
Gb|-------------------------------------------------|
Db|-------------------------------------------------|
Ab|-------------------------------------------------|
Eb|-------------------------------------------------|
  |
  |GTR III,IV
eb|-------------------------------------------------|
Bb|-------------------------------------------------|
Gb|-------------------------------------------------|
Db|--5--5--------------------5--5-------------------|
Ab|--5--5--x--x--x--x--x--x--5--5--x--x--x--x--x--x-|
Eb|--3--3--x--x--x--x--x--x--3--3--x--x--x--x--x--x-|

   GTR I,II
eb|-------------------------------------------------|
Bb|-------------------------------------------------|
Gb|-------------------------------------------------|
Db|-------------------------------------------------|
Ab|-------------------------------------------------|
Eb|-------------------------------------------------|
  |
  |GTR III,IV
eb|-------------------------------------------------|
Bb|-------------------------------------------------|
Gb|-------------------------------------------------|
Db|--5--5--------------------5--5-------------------|
Ab|--5--5--x--x--x--x--x--x--5--5--x--x--x--x--x--x-|
Eb|--3--3--x--x--x--x--x--x--3--3--x--x--x--x--x--x-|

   GTR I,II
eb|-------------------------------------------------|
Bb|-------------------------------------------------|
Gb|-------------------------------------------------|
Db|-------------------------------------------------|
Ab|-------------------------------------------------|
Eb|-------------------------------------------------|
  |
  |GTR III,IV
eb|-------------------------------------------------|
Bb|-------------------------------------------------|
Gb|-------------------------------------------------|
Db|--5--5--------------------5--5-------------------|
Ab|--5--5--x--x--x--x--x--x--5--5--x--x--x--x--x--x-|
Eb|--3--3--x--x--x--x--x--x--3--3--x--x--x--x--x--x-|

Bridge 2

   GTR I,II
eb|-------------------------------------------------|
Bb|-------------------------------------------------|
Gb|--4b---------r4b------r4--7-----4-----4-----6----|
Db|-------------------------------------------------|
Ab|-------------------------------------------------|
Eb|-------------------------------------------------|
  |
  |GTR III,IV
eb|-------------------------------------------------|
Bb|-------------------------------------------------|
Gb|--3--3--3--3--3--3--3--3--3--3--3--3--3--3--3--3-|
Db|--3--3--3--3--3--3--3--3--3--3--3--3--3--3--3--3-|
Ab|--1--1--1--1--1--1--1--1--1--1--1--1--1--1--1--1-|
Eb|-------------------------------------------------|

   GTR I,II
eb|-------------------------------------------------|
Bb|-------------------------------------------------|
Gb|-------------------------------------------------|
Db|--3b---------r3-----5----------------------------|
Ab|--------------------------3b---------r3-----5----|
Eb|-------------------------------------------------|
  |  PH.                     PH.
  |GTR III,IV
eb|-------------------------------------------------|
Bb|-------------------------------------------------|
Gb|--3--3--3--3--3--3--3--3--3--3--3--3--3--3--3--3-|
Db|--3--3--3--3--3--3--3--3--3--3--3--3--3--3--3--3-|
Ab|--1--1--1--1--1--1--1--1--1--1--1--1--1--1--1--1-|
Eb|-------------------------------------------------|

   GTR I,II
eb|-------------------------------------------------|
Bb|-------------------------------------------------|
Gb|-------------------------------------------------|
Db|--5~---------------------------------------------|
Ab|-------------------------------------------------|
Eb|-------------------------------------------------|
  |
  |GTR III,IV
eb|-------------------------------------------------|
Bb|-------------------------------------------------|
Gb|-------------------------------------------------|
Db|--5--5--------------------5--5-------------------|
Ab|--5--5--x--x--x--x--x--x--5--5--x--x--x--x--x--x-|
Eb|--3--3--x--x--x--x--x--x--3--3--x--x--x--x--x--x-|

   GTR I,II
eb|-------------------------------------------------|
Bb|-------------------------------------------------|
Gb|-------------------------------------------------|
Db|-------------------------------------------------|
Ab|-------------------------------------------------|
Eb|-------------------------------------------------|
  |
  |GTR III,IV
eb|-------------------------------------------------|
Bb|-------------------------------------------------|
Gb|-------------------------------------------------|
Db|--5--5--------------------5--5-------------------|
Ab|--5--5--x--x--x--x--x--x--5--5--x--x--x--x--x--x-|
Eb|--3--3--x--x--x--x--x--x--3--3--x--x--x--x--x--x-|

   GTR I
eb|-------------------------------------------------|
Bb|-------------------------------------------------|
Gb|/12----10/14\-----------/12----10/15\------------|
Db|-------------------------------------------------|
Ab|--------------------x--x--------------------x--x-|
Eb|--------------------x--x--------------------x--x-|
  |                                
  |GTR III,IV
eb|-------------------------------------------------|
Bb|-------------------------------------------------|
Gb|--3--3--3--3--3--3--3--3--3--3--3--3--3--3--3--3-|
Db|--3--3--3--3--3--3--3--3--3--3--3--3--3--3--3--3-|
Ab|--1--1--1--1--1--1--1--1--1--1--1--1--1--1--1--1-|
Eb|-------------------------------------------------|

   GTR I
eb|-------------------------------------------------|
Bb|-------------------------------------------------|
Gb|/12----10/14\-----------/14/15-15/17-17/19-19/21-|
Db|-------------------------------------------------|
Ab|-------------------------------------------------|
Eb|-------------------------------------------------|
  |
  |GTR II
eb|-------------------------------------------------|
Bb|-------------------------------------------------|
Gb|------------------------/14/15-15/17-17/19-19/21-|
Db|-------------------------------------------------|
Ab|-------------------------------------------------|
Eb|-------------------------------------------------|
  |                                
  |GTR III,IV
eb|-------------------------------------------------|
Bb|-------------------------------------------------|
Gb|--3--3--3--3--3--3--3--3--3--3--3--3--3--3--3--3-|
Db|--3--3--3--3--3--3--3--3--3--3--3--3--3--3--3--3-|
Ab|--1--1--1--1--1--1--1--1--1--1--1--1--1--1--1--1-|
Eb|-------------------------------------------------|

Guitar Solo

   GTR I
eb|-------------------------------------------------|
Bb|-------------------------------------------------|
Gb|-------------------------------------------------|
Db|-------------------------------------------------|
Ab|-------------------------------------------------|
Eb|-------------------------------------------------|
  |
  |GTR II
eb|-------------------------------------------------|
Bb|-------------------------------------------------|
Gb|-------------------------------------------------|
Db|-------------------------------------------------|
Ab|-------------------------------------------------|
Eb|-------------------------------------------------|
  |                                
  |GTR III,IV
eb|-------------------------------------------------|
Bb|-------------------------------------------------|
Gb|--5--5--5--5--5--5--5--5--5--5--5--5--5--5--5--5-|
Db|--5--5--5--5--5--5--5--5--5--5--5--5--5--5--5--5-|
Ab|--3--3--3--3--3--3--3--3--3--3--3--3--3--3--3--3-|
Eb|-------------------------------------------------|

   GTR I
eb|-------------------------------------------------|
Bb|-------------------------------------------------|
Gb|-------------------------------------------------|
Db|-------------------------------------------------|
Ab|-------------------------------------------------|
Eb|-------------------------------------------------|
  |
  |GTR II
eb|-------------------------------------------------|
Bb|-------------------------------------------------|
Gb|-------------------------------------------------|
Db|-------------------------------------------------|
Ab|-------------------------------------------------|
Eb|-------------------------------------------------|
  |                                
  |GTR III,IV
eb|-------------------------------------------------|
Bb|-------------------------------------------------|
Gb|--5--5--5--5--5--5--5--5--5--5--5--5--5--5--5--5-|
Db|--5--5--5--5--5--5--5--5--5--5--5--5--5--5--5--5-|
Ab|--3--3--3--3--3--3--3--3--3--3--3--3--3--3--3--3-|
Eb|-------------------------------------------------|

Post Solo

   GTR V
eb|-------------------------------------------------|
Bb|--6--3-------------------------------------------|
Gb|--------0--3--0-----------0-----3--0--------3--0-|
Db|-----------------0--0--3-----3-------------------|
Ab|-------------------------------------------------|
Eb|-------------------------------------------------|

   GTR V
eb|-------------------------------------------------|
Bb|--6--3-------------------------------------------|
Gb|--------0--3--0-----------0----------------------|
Db|-----------------0--0--3-----3--3b----3b----3b---|
Ab|-------------------------------------------------|
Eb|-------------------------------------------------|

   GTR I
eb|-------------------------------------------------|
Bb|--6--3-------------------------------------------|
Gb|--------0--3--0-----------0-----3--0--------3--0-|
Db|-----------------0--0--3-----3-------------------|
Ab|-------------------------------------------------|
Eb|-------------------------------------------------|
  |
  |GTR II
eb|-13-10-------------------------------------------|
Bb|--------8-11--8-----------8----11--8-------11--8-|
Gb|-----------------7--7-10----10-------------------|
Db|-------------------------------------------------|
Ab|-------------------------------------------------|
Eb|-------------------------------------------------|
  |
  |GTR III
eb|-------------------------------------------------|
Bb|-------------------------------------------------|
Gb|-------------------------------------------------|
Db|-------------------------------------------------|
Ab|--5--5--5--5--5--5--5--5--5--5--5--5--5--5--5--5-|
Eb|--3--3--3--3--3--3--3--3--3--3--3--3--3--3--3--3-|
     .  .  .  .  .  .  .  .  .  .  .  .  .  .  .  .

   GTR I
eb|-------------------------------------------------|
Bb|--6--3-------------------------------------------|
Gb|--------0--3--0-----------0----------------------|
Db|-----------------0--0--3-------------------------|
Ab|-------------------------------------------------|
Eb|-------------------------------------------------|
  |
  |GTR II
eb|-13-10-------------------------------------------|
Bb|--------8-11--8-----------8----------------------|
Gb|-----------------7--7-10-------------------------|
Db|-------------------------------------------------|
Ab|-------------------------------------------------|
Eb|-------------------------------------------------|
  |
  |GTR III
eb|-------------------------------------------------|
Bb|-------------------------------------------------|
Gb|-------------------------------------------------|
Db|-------------------------------------------------|
Ab|--5--5--5--5--5--5--5--5--5----------------------|
Eb|--3--3--3--3--3--3--3--3--3----------------------|
     .  .  .  .  .  .  .  .  .                     

Chorus 2

   GTR I,II
eb|-------------------------------------------------|
Bb|-------------------------------------------------|
Gb|--8--8--8--8--8--8--8--8--8--8--8--8--8--8--8--8-|
Db|--8--8--8--8--8--8--8--8--8--8--8--8--8--8--8--8-|
Ab|--6--6--6--6--6--6--6--6--6--6--6--6--6--6--6--6-|
Eb|-------------------------------------------------|

   GTR I,II
eb|-------------------------------------------------|
Bb|-------------------------------------------------|
Gb|--3--3--3--3--3--3--3--3--3--3--3--3--3--3--3--3-|
Db|--3--3--3--3--3--3--3--3--3--3--3--3--3--3--3--3-|
Ab|--1--1--1--1--1--1--1--1--1--1--1--1--1--1--1--1-|
Eb|-------------------------------------------------|

   GTR I,II
eb|-------------------------------------------------|
Bb|-------------------------------------------------|
Gb|-10-10-10-10-10-10-10-10-10-10-10-10-10-10-10-10-|
Db|-10-10-10-10-10-10-10-10-10-10-10-10-10-10-10-10-|
Ab|--8--8--8--8--8--8--8--8--8--8--8--8--8--8--8--8-|
Eb|-------------------------------------------------|

   GTR I,II
eb|-------------------------------------------------|
Bb|-------------------------------------------------|
Gb|--5--5--5--5--5--5--5--5--5--5--5--5--5--6--6--7-|
Db|--5--5--5--5--5--5--5--5--5--5--5--5--5--6--6--7-|
Ab|--3--3--3--3--3--3--3--3--3--3--3--3--3--4--4--5-|
Eb|-------------------------------------------------|

   GTR I,II
eb|-------------------------------------------------|
Bb|-------------------------------------------------|
Gb|--8--8--8--8--8--8--8--8--8--8--8--8--8--8--8--8-|
Db|--8--8--8--8--8--8--8--8--8--8--8--8--8--8--8--8-|
Ab|--6--6--6--6--6--6--6--6--6--6--6--6--6--6--6--6-|
Eb|-------------------------------------------------|

   GTR I,II
eb|-------------------------------------------------|
Bb|-------------------------------------------------|
Gb|--3--3--3--3--3--3--3--3--3--3--3--3--3--3--3--3-|
Db|--3--3--3--3--3--3--3--3--3--3--3--3--3--3--3--3-|
Ab|--1--1--1--1--1--1--1--1--1--1--1--1--1--1--1--1-|
Eb|-------------------------------------------------|

   GTR I,II
eb|-------------------------------------------------|
Bb|-------------------------------------------------|
Gb|-10-10-10-10-10-10-10-10-10-10-10-10-10-10-10-10-|
Db|-10-10-10-10-10-10-10-10-10-10-10-10-10-10-10-10-|
Ab|--8--8--8--8--8--8--8--8--8--8--8--8--8--8--8--8-|
Eb|-------------------------------------------------|

   GTR I,II
eb|-------------------------------------------------|
Bb|-------------------------------------------------|
Gb|--5--5--5--5--5--5--5--5--5--5--5--5--5--5--5--5-|
Db|--5--5--5--5--5--5--5--5--5--5--5--5--5--5--5--5-|
Ab|--3--3--3--3--3--3--3--3--3--3--3--3--3--3--3--3-|
Eb|-------------------------------------------------|

Outro

   GTR I
eb|-------------------------------------------------|
Bb|--6--3-------------------------------------------|
Gb|--------0--3--0-----------0-----3--0--------3--0-|
Db|-----------------0--0--3-----3-------------------|
Ab|-------------------------------------------------|
Eb|-------------------------------------------------|
  |
  |GTR II
eb|-13-10-------------------------------------------|
Bb|--------8-11--8-----------8----11--8-------11--8-|
Gb|-----------------7--7-10----10-------------------|
Db|-------------------------------------------------|
Ab|-------------------------------------------------|
Eb|-------------------------------------------------|
  |
  |GTR III
eb|-------------------------------------------------|
Bb|-------------------------------------------------|
Gb|-------------------------------------------------|
Db|-------------------------------------------------|
Ab|--5--5--5--5--5--5--5--5--5--5--5--5--5--5--5--5-|
Eb|--3--3--3--3--3--3--3--3--3--3--3--3--3--3--3--3-|
  |  .  .  .  .  .  .  .  .  .  .  .  .  .  .  .  .
  |GTR IV
eb|-------------------------------------------------|
Bb|--8\---------------------------------------------|
Gb|--7\---------------------------------------------|
Db|-------------------------------------------------|
Ab|-------------------------------------------------|
Eb|-------------------------------------------------|

   GTR I
eb|-------------------------------------------------|
Bb|--6--3-------------------------------------------|
Gb|--------0--3--0-----------0----------------------|
Db|-----------------0--0--3-----3--3-----3-----3----|
Ab|-----------------------------3--3-----3-----3----|
Eb|-----------------------------1--1-----1-----1----|
  |
  |GTR II
eb|-13-10-------------------------------------------|
Bb|--------8-11--8-----------8----------------------|
Gb|-----------------7--7-10----10-10----10----10----|
Db|----------------------------10-10----10----10----|
Ab|-----------------------------8--8-----8-----8----|
Eb|-------------------------------------------------|
  |
  |GTR III
eb|-------------------------------------------------|
Bb|-------------------------------------------------|
Gb|-------------------------------------------------|
Db|-------------------------------------------------|
Ab|--5--5--5--5--5--5--5--5--5--3--3--3--3--3--3--3-|
Eb|--3--3--3--3--3--3--3--3--3--1--1--1--1--1--1--1-|
  |  .  .  .  .  .  .  .  .  .  .  .  .  .  .  .  .
  |GTR IV
eb|-------------------------------------------------|
Bb|--8\---------------------------------------------|
Gb|--7\---------------------------------------------|
Db|-------------------------------------------------|
Ab|-------------------------------------------------|
Eb|-------------------------------------------------|

   GTR I
eb|-------------------------------------------------|
Bb|--6--3-------------------------------------------|
Gb|--------0--3--0-----------0-----3--0--------3--0-|
Db|-----------------0--0--3-----3-------------------|
Ab|-------------------------------------------------|
Eb|-------------------------------------------------|
  |
  |GTR II
eb|-13-10-------------------------------------------|
Bb|--------8-11--8-----------8----11--8-------11--8-|
Gb|-----------------7--7-10----10-------------------|
Db|-------------------------------------------------|
Ab|-------------------------------------------------|
Eb|-------------------------------------------------|
  |
  |GTR III
eb|-------------------------------------------------|
Bb|-------------------------------------------------|
Gb|-------------------------------------------------|
Db|-------------------------------------------------|
Ab|--5--5--5--5--5--5--5--5--5--5--5--5--5--5--5--5-|
Eb|--3--3--3--3--3--3--3--3--3--3--3--3--3--3--3--3-|
  |  .  .  .  .  .  .  .  .  .  .  .  .  .  .  .  .
  |GTR IV
eb|-------------------------------------------------|
Bb|--8\---------------------------------------------|
Gb|--7\---------------------------------------------|
Db|-------------------------------------------------|
Ab|-------------------------------------------------|
Eb|-------------------------------------------------|

   GTR I
eb|-------------------------------------------------|
Bb|--6--3-------------------------------------------|
Gb|--------0--3--0-----------0----------------------|
Db|-----------------0--0--3-----3--3-----3-----3----|
Ab|-----------------------------3--3-----3-----3----|
Eb|-----------------------------1--1-----1-----1----|
  |
  |GTR II
eb|-13-10-------------------------------------------|
Bb|--------8-11--8-----------8----------------------|
Gb|-----------------7--7-10----10-10----10----10----|
Db|----------------------------10-10----10----10----|
Ab|-----------------------------8--8-----8-----8----|
Eb|-------------------------------------------------|
  |
  |GTR III
eb|-------------------------------------------------|
Bb|-------------------------------------------------|
Gb|-------------------------------------------------|
Db|-------------------------------------------------|
Ab|--5--5--5--5--5--5--5--5--5--3--3--3--3--3--3--3-|
Eb|--3--3--3--3--3--3--3--3--3--1--1--1--1--1--1--1-|
  |  .  .  .  .  .  .  .  .  .  .  .  .  .  .  .  .
  |GTR IV
eb|-------------------------------------------------|
Bb|--8\---------------------------------------------|
Gb|--7\---------------------------------------------|
Db|-------------------------------------------------|
Ab|-------------------------------------------------|
Eb|-------------------------------------------------|


| b  bend
| r  release bend
|PH. pinch harmonic
|fbk feedback
| .  palm-mute
| /  slide up
| \  slide down
| h  hammer-on
| p  pull-off
| ~  vibrato
| +  harmonic
| x  Mute note





Comments


Popular Collective Soul tabs & chords
Forgiveness Bass Tabs
Precious Declaration Bass Tabs
All Chords
Sister Don't Cry 1 Tabs
Why Pt Tabs
Forgiveness Ukulele
Fuzzy Ukulele
Precious Declaration Ukulele
Satellite Ukulele
Youth Ukulele


Song lyrics



↑ Back to top | Tablatures and chords are parodies/interpretations of the original songs. You may use it for private study, scholarship, research or language learning purposes only
© 2014 AZChords.com Contact us | Privacy policy | DMCA | Add/correct tabs | Request tabs | Top 50 tabs