>
 >
Compliment 2

Compliment 2 Guitar Tabs

Collective Soul - Compliment 2 chords, tabs, tablatures, lyrics

Guitar lessons | Add/correct | Request | Top 50 tabs Artists:  A B C D E F G H I J K L M N O P Q R S T U V W X Y Z 0-9

Compliment 2 Guitar Tabs – Collective Soul

CD, Sheet music, Poster

Do you like Compliment 2? Share with your friends now
ChordsTabsTabs v2Ukulele
-------------------------------------------------------------------------------
                             Compliment (Acoustic) - Collective Soul
-------------------------------------------------------------------------------

Tuning: Down 1/2 step (eb Bb Gb Db Ab Ea)

Chords used:
     C   Csus4   Am   Fmaj7  G     E     F
eb|--0-----0-----0-----0-----3-----0-----1-------------------------------------------|
Bb|--1-----1-----1-----1-----3-----0-----1-------------------------------------------|
Gb|--0-----0-----2-----2-----0-----1-----2-------------------------------------------|
Db|--2-----3-----2-----3-----0-----2-----3-------------------------------------------|
Ab|--3-----3-----0-----3-----2-----2-----3-------------------------------------------|
Eb|--------------------------3-----0-----1---------------------------------------|

Riff1 (Guitar 2):

eb|------------------15------15------|
Bb|--12--13--15----------13------13--|
Gb|--------------12------------------|
Db|----------------------------------|
Ab|----------------------------------|
Eb|----------------------------------|

Riff2 (Guitar 2):

eb|--------0-----------1---------|
Bb|------0---0-------1---1-------|
Gb|----1-------1---2-------2-----|
Db|--2-----------3-----------3---|
Ab|------------------------------|
Eb|------------------------------|

Riff3 (Guitar 2):

eb|--12--12/13--13--13p12--12--12\10--8/10--10/12--12/13--13--13/15--15--|
Bb|----------------------------------------------------------------------|
Gb|----------------------------------------------------------------------|
Db|----------------------------------------------------------------------|
Ab|----------------------------------------------------------------------|
Eb|----------------------------------------------------------------------|

Intro: C Csus4 x2

Verse: (C Csus4) x4
Now I've taken the side
Of a beautiful calm
Can you see this disguise
Fading to a resolve

Chorus: (Am Fmaj7 C G) x2 (E F)
And there it goes my innocence
While gathering up a compliment
And here I lie with words to swear
There's something more than
The world out there there
The world out there

Interlude: (C Csus4) x2

Verse: (C Csus4) x4
Hesitation compounds
I've nothing left to sustain
My worries here have allowed
A momentary refrain

Chorus: Guitar 1 - (Am Fmaj7 C G) x2 (E F)
        Guitar 2 - (Riff1)           (Riff2)
And there it goes my innocence
While gathering up a compliment
And here I lie with words to swear
There's something more
Than the world out there

Interlude: Guitar 1 - (C Csus4) x5
           Guitar 2 - (Riff3)
Outro: Guitar 1 - (Am Fmaj7 C G) x4 (E F) x2 (C)
       Guitar 2 - (Riff1)           (Riff2)
And there it goes my innocence
While gathering up a compliment
And here I lie with words to swear
There's something more
Than the world out there
And there it goes my innocence
I'm dying here for a compliment
And here I lie with words to swear
There's something more
Than the world out there there
The world out there there
The world out there

| /  slide up
| \  slide down
| h  hammer-on
| p  pull-off
| ~  vibrato
| +  harmonic
| x  Mute note
===============================================================================





Comments


Popular Collective Soul tabs & chords
Shine 2 Bass Tabs
December Chords
Home Chords
Pefect To Stay Chords
Perfect To Stay Chords
Feels Like (It Feels Alright) Tabs
Georgia Girl 1 Tabs
Heavens Already Here Intro Tabs
Welcome All Again Tabs
Crown Ukulele


Song lyrics



↑ Back to top | Tablatures and chords are parodies/interpretations of the original songs. You may use it for private study, scholarship, research or language learning purposes only
© 2014 AZChords.com Contact us | Privacy policy | DMCA | Add/correct tabs | Request tabs | Top 50 tabs