>
 >
Breathe 1

Breathe 1 Guitar Tabs

Collective Soul - Breathe 1 chords, tabs, tablatures, lyrics

Guitar lessons | Add/correct | Request | Top 50 tabs Artists:  A B C D E F G H I J K L M N O P Q R S T U V W X Y Z 0-9

Breathe 1 Guitar Tabs – Collective Soul

CD, Sheet music, Poster

Do you like Breathe 1? Share with your friends now
TabsTabs v2


Hey fellow guitarists, I tabbed you all a song, "Breathe" by Collective Soul.  This is 
of my favorite songs, and the existing version tabbed is missing

a few notes in the verse and lacks the bridge, solo, and outro.
I tabbed the whole song to the best of my ability, even the solo.  This solo is a great 
and totally worth learning.  It's not that hard, but sounds

pretty cool, so whatever, go ahead.
Now, a few places were questionable as in what the guitarist actually played, because of 
vocals and drumming so I had to take a guess at it.  I know

the bridge is probably off, but I tried.  Also, in the end of the solo, the crazy bends 
the 15th fret are not really in any order, I couldn't get the

exact one because it sounds like theres 2 guitars playing that section, but what I have 
and sounds good.
There are a few places I will put *s under the tab or something, there will be a few 
 There is no tempo, I broke it into sections and have how many

times that section is played to the right of the section.  Pretty self-explanatory.

KEY
/ | slide up
\ | slide down
b | bend
r | release bend
h | hammer-on
p | pull-off
x | rake/dead note
v | vibrato
~ | hold note

Tuning: Standard (EADGBe)


e|---------------------------------------------------------------|
B|---------------------------------------------------------------|
G|---------------------------------------------------------------|
D|---------------------------------------------------------------|
A|---------------------------------------------------------------|
E|---------------------------------------------------------------|

INTRO
e|-------------------------------|
B|-------------------------------|
G|-------------------------------|
D|-7h9-9-9-9\--4h6-6-6-6-6p4\2---| x 4
A|-------------------------------|
E|-------------------------------|

VERSE 1
e|---------------------|
B|---------------------|
G|---------------------|
D|---------------------| x 4
A|-----2-2-------------|
E|-3p2-0-0----0----0---|
              *    *  Pick at the bridge.
CHORUS 1
e|-----0~---------------------0----------------|
B|-----0~---------------------0----------------|
G|-----1~--1h2p1h2p1----------1-1h2p1h2p1-4v---|
D|-----2~------------2--------2----------------| x 2
A|-2-2-2~--------------2--2-2-2----------------|
E|-0-0-0~-----------------0-0-0----------------|

VERSE 2
e|---------------------|
B|---------------------|
G|---------------------|
D|---------------------| x 4
A|-----2-2-------------|
E|-3p2-0-0----0----0---|
              *    *  Pick at the bridge.
CHORUS 2
e|-----0~---------------------0----------------|
B|-----0~---------------------0----------------|
G|-----1~--1h2p1h2p1----------1-1h2p1h2p1-4v---|
D|-----2~------------2--------2----------------| x 2
A|-2-2-2~--------------2--2-2-2----------------|
E|-0-0-0~-----------------0-0-0----------------|

INTERLUDE
e|---------------------------------------|
B|---------------------------------------|
G|-14v-12v-11v---------------------------|
D|-------------14v-12v-11v---------------| x 2
A|-------------------------14v-12v-10v---|
E|---------------------------------------|

BRIDGE
e|------------------------------------------------|
B|------------------------------------------------|
G|------------------------------------------------|
D|------8-6-------8-6-------11-9-------11-9--9~---|
A|-4-4--6-4-------6-4--7-7---9-7--7-7---9-7--7~---|
E|-2-2-------2-2-------5-5--------5-5-------------|

MAIN SOLO
e|-----------------------------------------------------------|
B|-----------------------------------------------------------|
G|--------12--12--12v\----12--12-14b16-14b16r14-14b16p12-----|
D|-x-x-/14--14--14-----/14--14--------------------------14---|
A|-x-x-------------------------------------------------------|
E|-----------------------------------------------------------|


e|-------------------------------------------------------------10---|
B|---------------------------------------------------8-8/10b12r11---|
G|----------------------------------------------6/7-9-9-------------|
D|-12\9-7---------------------------------5-7-/9--------------------|
A|--------/10-7h10/12-10-7-10b11-7v---/5h7--------------------------|
E|------------------------------------------------------------------|
           Release the bend slightly as you hit the 10th fret  *
         *
e|-------10--10---10--10---10-------------------|
B|-10b12r11--10b12----10b12---10b12r10p8h10p8---|
G|----------------------------------------------|
D|----------------------------------------------|
A|----------------------------------------------|
E|----------------------------------------------|


e|-------7-----------------------------------------------------------|
B|---8v--8v----------------------------------------------------------|
G|-/9--/9---9-8-7-------------------------------------------12--12---|
D|---------------9-7-----------------------------------12-14--14-----|
A|-------------------10-7--10b11-7--10p7h10p7h10/12/14---------------|
E|-------------------------------------------------------------------|


e|------------------------------------------------------|
B|-------------------12-15b17-15b17-15b17r15p12-15b17---|
G|-14b16-14b16p12--14-----------------------------------|
D|---------------14-------------------------------------|
A|------------------------------------------------------|
E|------------------------------------------------------|


e|-12----12---12------12-----------|
B|-15b17-15b17---15b17--15b17r15---|
G|---------------------------------|
D|---------------------------------|
A|---------------------------------|
E|---------------------------------|

VERSE 3            *  Pluck with finger at the bridge
e|-----------------0---|
B|---------------------|
G|---------------------|
D|---------------------| x 4
A|-----2-2-------------|
E|-3p2-0-0----0----0---|
              *    *  Pick at the bridge.

CHORUS 3
e|-----0~---------------------0----------------|
B|-----0~---------------------0----------------|
G|-----1~--1h2p1h2p1----------1-1h2p1h2p1-4v---|
D|-----2~------------2--------2----------------| x 4
A|-2-2-2~--------------2--2-2-2----------------|
E|-0-0-0~-----------------0-0-0----------------|


e|-----0~-------------------|
B|-----0~-------------------|
G|-----1~--1h2p1------------|
D|-----2~-------2p0---------| x 4
A|-2-2-2~----------2p0------|
E|-0-0-0~-------------3p0---|

OUTRO SOLO
e|--------------------|
B|-12v-9v-10p9-7------|
G|---------------9v---|
D|--------------------| x 4
A|--------------------|
E|--------------------|

OUTRO
e|---------------------------|
B|---------------------------|
G|---------------------------|
D|---------------------------| x 4
A|------2--2--2--2-2--2--2---|
E|--3p2-0--0--0--0-0--0--0---|

Thanks for using my tabs, please comment and rate it!





Comments


Popular Collective Soul tabs & chords
Heaven's Already Here Chords
Turn Around  Chords
Collection Of Goods Tabs
Heavens Already Here Intro Tabs
Satellite Tabs
Sattelite Tabs
She Gathers Rain 1 Tabs
Shine 7 Tabs
Why Part 2 2 Tabs
In Between Ukulele


Song lyrics



↑ Back to top | Tablatures and chords are parodies/interpretations of the original songs. You may use it for private study, scholarship, research or language learning purposes only
© 2014 AZChords.com Contact us | Privacy policy | DMCA | Add/correct tabs | Request tabs | Top 50 tabs