» » »

Cold, A Different Kind Of Pain Tabs (ver.2)

Artists:  A B C D E F G H I J K L M N O P Q R S T U V W X Y Z # 

A Different Kind Of Pain Tabs (ver.2)

Cold Tabs
 Rating:
4/5 (7 votes)
A Different Kind Of Pain lessons Tabs too difficult? Try these video lessons and learn fast
1
                -------------------------------------------------------------------------------
                    A Different Kind of Pain - Cold
-------------------------------------------------------------------------------

Tuning: Drop D

This is the song of the album here.  It is awesome.  First time i've ever tabbed but 
accurate.  Please let me know what you think and where i may have messed up.

           Intro (it's piano but can be played with guitar)1 x
e|-----------------------------------------------------------------------------|
B|-----------------------------------------------------------------------------|
G|-----------------------------------------------------------------------------|
D|------6-8-10-8-------8-8-10-8--------5-6-5-3------6-6-6/8\6------------------|
A|-----6-6-6----------5-5-5-----------3-3-----3----4-4-------------------------|
E|----6--------------5-----------5-6-3-----------------------------------------|
                            Verse 2 X's
e|-----------------------------------------------------------------------------|
B|-----------------------------------------------------------------------------|
G|-----------------------------------------------------------------------------|
D|------6-8-10-8-------8-8-10-8--------5-6-5-3------6-6-6/8\6------------------|
A|-----6-6-6----------5-5-5-----------3-3-----3----4-4-------------------------|
E|----6--------------5-----------5-6-3-----------------------------------------|
                             Chorus 2 X
e|-----------------------------------------------------------------------------|
B|-----------------------------------------------------------------------------|
G|-----------------------------------------------------------------------------|
D|-----10--------------6--------------8-----------------3----------------------|
A|-----10--------------6--------------8-----------------3----------------------|
E|-----10--------------6--------------8-----------------3----------------------|
   kinda like the...
e|-----------------------------------------------------------------------------|
B|-----------------------------------------------------------------------------|
G|-----------------------------------------------------------------------------|
D|----6----------------8---------------3---------------6-----------------------|
A|----6----------------6---------------3---------------4-----------------------|
E|----6--------------------------------3---------------------------------------|
   A different kind of.... 2 X's

                         Verse 2 x's
e|-----------------------------------------------------------------------------|
B|-----------------------------------------------------------------------------|
G|-----------------------------------------------------------------------------|
D|------6-8-10-8-------8-8-10-8--------5-6-5-3------6-6-6/8\6------------------|
A|-----6-6-6----------5-5-5-----------3-3-----3----4-4-------------------------|
E|----6--------------5-----------5-6-3-----------------------------------------|
    I tried to let...

e|-----------------------------------------------------------------------------|
B|-----------------------------------------------------------------------------|
G|-----------------------------------------------------------------------------|
D|-----10--------------6--------------8-----------------3----------------------|
A|-----10--------------6--------------8-----------------3----------------------|
E|-----10--------------6--------------8-----------------3----------------------|

e|-----------------------------------------------------------------------------|
B|-----------------------------------------------------------------------------|
G|-----------------------------------------------------------------------------|
D|----6----------------8---------------3---------------6-----------------------|
A|----6----------------6---------------3---------------4-----------------------|
E|----6--------------------------------3---------------------------------------|
                           Bridge 2 x's
e|------------------------------------------------------------------------------|
B|------------------------------------------------------------------------------|
G|------------------------------------------------------------------------------|
D|----8----------------11----------------8--------------11---[--14--------------|
A|----8----------------11----------------8--------------11---[--14--------------|
E|----8----------------11----------------8--------------11---[--14--------------|
                 before you let me go...                        2nd time

                       Play till the end
e|-----------------------------------------------------------------------------|
B|-----------------------------------------------------------------------------|
G|-----------------------------------------------------------------------------|
D|----6----------------8---------------3---------------6-----------------------|
A|----6----------------6---------------3---------------4-----------------------|
E|----6--------------------------------3---------------------------------------|
   A different kind of.... 2 X's


| /  slide up
| \  slide down
| h  hammer-on
| p  pull-off
| ~  vibrato
| +  harmonic
| x  Mute note
===============================================================================
            
Submit corrections

comments powered by Disqus
↑ Back to top | Cold Tabs for A Different Kind Of Pain. Lyrics for acoustic guitar and electric guitar. 1 Tablatures and chords are parodies/interpretations of the original songs. You may use it for private study, scholarship, research or language learning purposes only