» » »

Cold, A Different Kind Of Pain Tabs (ver.1)

Artists:  A B C D E F G H I J K L M N O P Q R S T U V W X Y Z # 

A Different Kind Of Pain Tabs (ver.1)

Cold Tabs
 Rating:
4/5 (10 votes)
A Different Kind Of Pain lessons Tabs too difficult? Try these video lessons and learn fast
                Ok, all the other tabs have this played in drop D. It actually is played in standard E 
know what you guys think.

:INTRO: (PLAYED ON PIANO, BUT CAN BE PLAYED ON GUITAR)


You can find the rythm by listening to the music.

e:--------------------------------------------------------------:
b:-----0-----1-0----0-------1-0-------0-----------0-------------:
g:----0-0-2--------0-0-2-------------0-0-2-0-0---0-0-2-0--------:
d:------------------------------------------4--0--------4-4/5---:Repeat
a:---------------------------------------------0----------------:
e:--3------3-----2--------2---2/3--0----------------------------:
          Before i let you go.......

:Verse:

e:-3------------------3----------------------------0--------------------:
b:-3------------------3----------------------------1--------------------:
g:-5------------------4----------------------------2--------------------:
d:-5------------------5----------------------------2--------------------:
a:-3------------------5----------------------------0--------------------:
e:-3------------------3----------------------------x--------------------:
   kinda like the     waves that roll their whole  life toward somewhere

e:-0-------------------------3----------------------3-------------------:
b:-0-------------------------3----------------------3-------------------:
g:-0-------------------------5----------------------4-------------------:
d:-2-------------------------5----------------------5-------------------:
a:-2-------------------------3----------------------5-------------------:
e:-0-------------------------3----------------------3-------------------:
   Crashin it on the shore   thats blown in by the  wind that carries the

e:-0-------------------3-----------5--------3:
b:-1-------------------3-----------5--------3:
g:-2-------------------5-----------7--------4:
d:-2-------------------5-----------7--------5:
a:-0-------------------3-----------5--------5:
e:-x-------------------3-----------5--------3:
   clouds to hide my   wish on a   fallen  star       /\
                                            (begining of chorus)

:Chorus:

e:-3------------------------x-------------------------7-------------------:
b:-3------------------------7-------------------------8-------------------:
g:-4------------------------7-------------------------9-------------------:
d:-5------------------------7-------------------------9-------------------:
a:-5------------------------5-------------------------7-------------------:
e:-3------------------------5-------------------------7-------------------:
   a different kinda pain   is someone there to hold  u is someone there to

e:-3------------------:
b:-3------------------:
g:-5------------------:
d:-5------------------: x2
a:-3------------------:
e:-3------------------:
   take u away from me

::intro::
i tried to let you go.....

::verse::
kinda like the waves.....

::Bridge::

e:-x----x---------------------x---:  :--5-----------------:
b:-x----x---------------------x---:  :--7-----------------:
g:-2----5---------------------2---:  :--7-----------------:
d:-2----5---------------------2---:x4:--7-----------------:
a:-0----3---------------------0---:  :--5-----------------:
e:-x----x---------------------x---:  :--5-----------------:
        before you let me go  away      i needed u to know


::chorus::
a different kinda pain
            
Submit corrections

comments powered by Disqus
↑ Back to top | Cold Tabs for A Different Kind Of Pain. Lyrics for acoustic guitar and electric guitar. Tablatures and chords are parodies/interpretations of the original songs. You may use it for private study, scholarship, research or language learning purposes only