>
 >
It Stops Today

It Stops Today Bass Tabs

Colbie Caillat - It Stops Today chords, tabs, tablatures, lyrics

Guitar lessons | Add/correct | Request | Top 50 tabs Artists:  A B C D E F G H I J K L M N O P Q R S T U V W X Y Z 0-9

It Stops Today Bass Tabs – Colbie Caillat

CD, Sheet music, Poster

Do you like It Stops Today? Share with your friends now
Bass TabsBass Tabs v2ChordsUkulele
It Stops Today -Colbie Caillat

Standard Tuning

Note:
For the verses, find the feeling in the song and you'll
find the right rythem!

Intro

G|-----------|
D|-----------|
A|---7--9--5-| X 2
E|5----------|

First Verse

G|------------------------------------|
D|------------------------------------|
A|-------7-X7-77-9-X9-99-5-X5-55  X 4-|
E|5-X5-55-----------------------------|

Pre Chorus

G|-----------------------------|
D|-----------------------------|
A|2-X2-22-2-X2-22-7-X7-77-7777-|
E|-----------------------------|

Chorus

G|--------------------------------------|
D|--------------------------------------|
A|--------777777779999999955555555  X 3-|
E|55555555------------------------------|


G|---------------------------|
D|---------------------------|
A|--------77777777999999995~-|
E|55555555-------------------|

Interlude

G|---------------------------------|
D|---------------------------------|
A|--------777777779999999955555555-|
E|55555555-------------------------|

Second Verse

G|------------------------------------|
D|------------------------------------|
A|-------7-X7-77-9-X9-99-5-X5-55  X 4-|
E|5-X5-55-----------------------------|

Pre Chorus

G|-----------------------------|
D|-----------------------------|
A|2-X2-22-2-X2-22-7-X7-77-7777-|
E|-----------------------------|

Chorus

G|--------------------------------------|
D|--------------------------------------|
A|--------777777779999999955555555  X 3-|
E|55555555------------------------------|


G|---------------------------|
D|---------------------------|
A|--------77777777999999995~-|
E|55555555-------------------|

Bridge

G|--------------------------------|
D|--------------------------------|
A|99999999777777775555555555555555   X 2
E|--------------------------------

G|-----|-----|
D|-----|-----|
A|2~---|7~---|
E|-----|-----|

Chorus

G|---------------------------|
D|---------------------------|
A|----7~---99999999555555555-|
E|5~-------------------------|

G|--------------------------------------|
D|--------------------------------------|
A|--------777777779999999955555555  X 2-|
E|55555555------------------------------|

G|---------------------------|
D|---------------------------|
A|--------77777777999999995~-|
E|55555555-------------------|





Comments


Popular Colbie Caillat tabs & chords
Capri 1 Chords
Capri 2 Chords
Droplets 1 Chords
Droplets 2 Chords
Falling For You 2 Chords
Favorite Song Chords
I Never Told You Chords
One Fine Wire 1 Chords
When The Darkness Comes Chords
Bubbly 7 Tabs


Song lyrics



↑ Back to top | Tablatures and chords are parodies/interpretations of the original songs. You may use it for private study, scholarship, research or language learning purposes only
© 2014 AZChords.com Contact us | Privacy policy | DMCA | Add/correct tabs | Request tabs | Top 50 tabs