» » »

Colbie Caillat, Bubbly Tabs (ver.1)

Artists:  A B C D E F G H I J K L M N O P Q R S T U V W X Y Z # 

Bubbly Tabs (ver.1)

Colbie Caillat Tabs
 Rating:
2.2/5 (65 votes)
Bubbly lessons Tabs too difficult? Try these video lessons and learn fast
                Intro and Verses tab:

you can play it straight like this, or give a quick glissandro playing the A string first.

E-(5)--------(5)-------|-(5)--------(5)-------|The brackets R for the chorus.
B--5---5------5---5----|--5---5------5---5----|
G.-6---6------6---6----|--7---7------6---6---.|
D.-7----------6--------|--7----------7-------.|
A----------------------|----------------------|
E----------------------|----------------------|

Verse 1:

I've been awake for a while now
you've got me feelin like a child now
cause every time i see your bubbly face
i get the tinglies in a silly place


Same chords in the chorus:
*She arpeggios the intro chords, (and also includes the 5th fret on the High E with all
chords. This is the bracket in the intro)
*or lightly strum these chords

Chorus:
                A
It starts in my toes
                   Amaj7
and I crinkle my nose
               D                 A
where ever it goes i always know
                     A
that you make me smile
                  Amaj7
please stay for a while now
               D
just take your time
               A
where ever you go


         Go back to the intro tab for this verse (but give it a bounce.)
Verse 2:

The rain is fallin on my window pane
but we are hidin in a safer place
under the covers stayin safe and warm
you give me feelings that i adore


Chorus:

They start in my toes
make me crinkle my nose
where ever it goes i always know
that you make me smile
please stay for a while now
just take your time
where ever you go


Bridge:
She plays this:

E--------------------|-------------------|-------------------|-------------------|-------------------|
B--5---5----5---5----|--7---7----7---7---|--9---9----9---9---|--7--7----9--9-----|---7---------------|
G.-6---6----6---6----|--7---7----7---7---|--9---9----9---9---|--7--7----9--9-----|---7---------------|
D.-6---6----6---6----|--7---7----7---7---|--9---9----9---9---|--0--0----0--0-----|---7---------------|
A--------------------|-------------------|-------------------|-------------------|-------------------|
E--------------------|-------------------|-------------------|-------------------|-------------------|


Alternativley you could lightly strum/palm mute this:
Amaj7             D
What am i gonna say
E                         C#m
when you make me feel this way
D  E
I just.......mmmmmm


Chorus:

Scat: Intro/Verses tab for 4 bars with your own 'doo wops' singing. and continue playing
into the 3rd verse...


Verse 3: Intro/Verses tab

I’ve been asleep for a while now
You tucked me in just like a child now
Cause every time you hold me in your arms
I'm comfortable enough to feel your warmth


Chorus:

It starts in my soul
And I lose all control
When you kiss my nose
The feelin shows
Cause you make me smile
Baby just take your time now
Holdin me ti-i-ight

Tag:
She plays:
E------9---------5-------|-----7----------5------|
B-----5-5-------5--5-----|----5-5--------5--5----|
G.--6----6-----6----6----|---7---7------6----6--.|   x4
D.-7------7-0-6------6-0-|--7-----7--0-7------7-.|
A------------------------|-----------------------|
E------------------------|-----------------------|

Alternatively you could play this (OR intro/verse tabs, but arpeggio'd!)

 A           Amaj7       D/F#       A
Where ever, where ever, where ever you go
 A(no6)      Amaj7(no7)    D/F#(no3)    A
Where ever, where ever, where ever you go…
 A(no6)  Amaj7(no7)  D/F#(no3)     A
Ooh wherever you go, I always know
 A(no6)             Amaj7(no7)           D/F#(no3)       A
Cause you make me smile, baby, just for a while...

That was my first TAB ever. I think I kicked butt.
            
Submit corrections

comments powered by Disqus
↑ Back to top | Colbie Caillat Tabs for Bubbly. Lyrics for acoustic guitar and electric guitar. Tablatures and chords are parodies/interpretations of the original songs. You may use it for private study, scholarship, research or language learning purposes only