» » »

I Never Told You Tabs (ver.1)

Artists:  A B C D E F G H I J K L M N O P Q R S T U V W X Y Z # 

I Never Told You Tabs (ver.1)

Colbie Caillat
Rating:
0/5 (0 votes)

Hard to play? Try these video lessons and learn fast.
                
[well, this my first tab...so...please enjoy and rate!...hahhaha:D add me as 
friend if you want to..okay?^_^....by the way...this is one of my favorite songs! 
and i love Colbie!!^_^:D.]
-listen to the song for the correct timing of picking and strumming of chords okay?!^_^



Tuning: Standard
Capo 3

 Intro
E|------------------------------------|
B|------------------------------------|
G|------2-0-2-------------2-0-2-------|
D|----2-------0-2/5-----2-------10/12-|
A|--0-----------------0---------------|
E|------------------------------------|

this picking is together with the strumming:) - Am F C G x2 -

Verse 1

Am           F
I miss those blue eyes
C               G
How you kiss me at night
Am         F        C  G
I miss the way we sleep
Am              F
Like there's no sunrise
C                 G
Like the taste of your smile
Am         F         C   G
I miss the way we breathe

Refrain

             F (strum once)
But I never told you
                   C (strum once)
What I should have said
             F (strum once)
No, I never told you
               C (strum once)
I just held it in


Chorus

G
And now,
Am          F         C    G
I miss everything about you
Am                 F          C    G
Can't believe that I still want you
    Am            F                C       G
And after all the things we've been through
Am          F          C   
I miss everything about you
G
Without you

E|---------------------------------------|
B|---------------------------------------|
G|------2-0-2----------------------------|
D|----2-------0-2--3-2-0-----------------|
A|--0------------------------------------|
E|---------------------------------------|
this picking is together with the strumming:) - Am F C G -


Verse 2

Am         F
I see your blue eyes
C           G
Everytime I close mine
Am          F          C  G
You make it hard to see

E|-------------------------------|
B|-------------------------------|
G|-------------------------------|
D|----2-3-0----------------------|
A|-----------3-5-0---------------|
E|-------------------------------|
this picking is together with the strumming:)

Am           F
Where I belong to
C            G
When I'm not around you
Am            F        C   G
It's like I'm alone with me

Refrain

             F (strum once)
But I never told you
                  C (strum once)
What I should have said
            F (strum once)
No, I never told you
               C (strum once)
I just held it in

G
And now,
Am         F         C     G
I miss everything about you
Am                F         C       G
Can't believe that I still want you
    Am            F              C          G
And after all the things we've been through
Am          F        C     
I miss everything about you
G
Without you

E|------------------------------------|
B|------------------------------------|
G|------2-0-2-------------2-0-2-------|
D|----2-------0-2/5-----2-------10/12-|
A|--0-----------------0---------------|
E|------------------------------------|

this picking is together with the strumming:) - Am F C G x2 -


Refrain

            F (strum once)
But I never told you
                   C (strum once)
What I should have said
            F (strum once)
No, I never told you
               C (strum once)
I just held it in

G
And now,
Am          F          C    G 
I miss everything about you
Am                 F           C    G
Can't believe that I still want you
    Am            F                C       G
And after all the things we've been through
Am          F          C   
I miss everything about you
G
Without you

E|------------------------------------|
B|------------------------------------|
G|------2-0-2-------------2-0-2-------|
D|----2-------0-2/5-----2-------0-2/5-|
A|--0-----------------0---------------|
E|------------------------------------|

this picking is together with the strumming:) - Am F C G x2 -

Am F C G (strum each chord once)
            
Hard to play? Try these video lessons and learn fast. | Correct




comments powered by Disqus
↑ Back to top | Tablatures and chords are parodies/interpretations of the original songs. You may use it for private study, scholarship, research or language learning purposes only