» » »

I Never Told You Bass tabs (ver.1)

Artists:  A B C D E F G H I J K L M N O P Q R S T U V W X Y Z # 

I Never Told You Bass tabs (ver.1)

Colbie Caillat
Rating:
0/5 (0 votes)

Hard to play? Try these video lessons and learn fast.
                Bass Tabs
Standard tuning

Intro
G|--------|
D|--------|
A|--------|
E|--------|

* Let Ring *
G|-------------|
D|-------------|
A|-------------|
E|8--4--11--6--|

First Verse
* Let Ring *
G|-------------|
D|-------------|
A|-------------|   X 4
E|8--4--11--6--|

Pre Chorus
* Let Ring *
G|-----------|
D|-----------|
A|-----------| X 2
E|4----11----|

G|--------|
D|--------|
A|--------|
E|6-6-6-6-|

Chorus

G|-------------------------------------|
D|-------------------------------------|
A|-------------------------------  X 4-|
E|8-8-XX-4-4-4-4-11-11-XX-6-6-6-6------|

Interlude

G|--------------------------------|
D|--------------------------------|
A|--------------------------------|
E|8-8-XX-4-4-4-4-11-11-XX-6-6-6-6-|

Second Verse

* Let Ring *
G|-------------|
D|-------------|
A|-------------|   X 4
E|8--4--11--6--|

Pre Chorus

* Let Ring *
G|-----------|
D|-----------|
A|-----------| X 2
E|4----11----|

G|--------|
D|--------|
A|--------|
E|6-6-6-6-|

Chorus

G|-------------------------------------|
D|-------------------------------------|
A|-------------------------------  X 4-|
E|8-8-XX-4-4-4-4-11-11-XX-6-6-6-6------|

Interlude

G|-------------------------------------|
D|-------------------------------------|
A|-------------------------------  X 2-|
E|8-8-XX-4-4-4-4-11-11-XX-6-6-6-6------|

Pre Chorus

* Let Ring *
G|-----------|
D|-----------|
A|-----------| X 2
E|4----11----|

G|--------|
D|--------|
A|--------|
E|6-6-6-6-|

Chorus

G|-------------------------------------|
D|-------------------------------------|
A|-------------------------------  X 4-|
E|8-8-XX-4-4-4-4-11-11-XX-6-6-6-6------|

Outro

G|-------------------------------------|
D|-------------------------------------|
A|-------------------------------  X 2-|
E|8-8-XX-4-4-4-4-11-11-XX-6-6-6-6------|

* Let Ring *
G|-----------|
D|-----------|
A|-----------|
E|8---4---11-|
            
Hard to play? Try these video lessons and learn fast. | Correct




comments powered by Disqus
↑ Back to top | Tablatures and chords are parodies/interpretations of the original songs. You may use it for private study, scholarship, research or language learning purposes only