>
 >
The Difference Between Medicine And Poison Is In The Dose

The Difference Between Medicine And Poison Is In The Dose Guitar Tabs

Circa Survive - The Difference Between Medicine And Poison Is In The Dose chords, tabs, tablatures, lyrics

Guitar lessons | Add/correct | Request | Top 50 tabs Artists:  A B C D E F G H I J K L M N O P Q R S T U V W X Y Z 0-9

The Difference Between Medicine And Poison Is In The Dose Guitar Tabs – Circa Survive

CD, Sheet music, Poster

Do you like The Difference Between Medicine And Poison Is In The Dose? Share with your friends now
Bass TabsChordsTabsUkulele
Circa Survive


this is text version of my guitar pro tab, enjoy!
please send a comment if any correction...


legend
h = hammer
p = pull
b = bend
r = release
\ = slide down
/ = slide up


Tuning dafcgd

Verse
gtr 1

|---5--------8-7---------5------8-7------------------------|
|-----5--------------------5-------------------------------|
|-------5--------9\7-7-------5------9\7-7--7/12--12h14-----|
|----------------------------------------------------------|
|----------------------------------------------------------|
|----------------------------------------------------------|

|---17--------20-19----------------------------------------|
|------17--------------------------------------------------|
|---------17--------21\19-19--h21p19h21p19h21p19-----------|
|----------------------------------------------------------|
|----------------------------------------------------------|
|----------------------------------------------------------|


  move one inch at.......

--------------------------|--------------------------|
--18----------------------|--17----------------------|
------14h-17--17----------|------14------17----------|
------------------14h-17--|----------17------14h-17--|
--------------------------|--------------------------|
--------------------------|--------------------------|

--------------------------|--------------------------|
--17----------------------|--18----------20----------|
------14------17----------|------14h-17------14h-17--|
----------17------14h-17--|--------------------------|
--------------------------|--------------------------|
--------------------------|--------------------------|

--------------------------|--------------------------|
--18----------------------|--17----------------------|
------14h-17--17----------|------14------17----------|
------------------14h-15--|----------15------14h-15--|
--------------------------|--------------------------|
--------------------------|--------------------------|

--------------------------|--------------------------|
--17----------------------|--18----------17----------|
------14------17----------|------14h-17------14h-17--|
----------15------14h-15--|--------------------------|
--------------------------|--------------------------|
--------------------------|--------------------------|

--------------------------|--------------------------|
--18----------------------|--17----------------------|
------14h-17--17----------|------14------17----------|
------------------14h-17--|----------17------14h-17--|
--------------------------|--------------------------|
--------------------------|--------------------------|

--------------------------|--------------------------|
--17----------------------|--18----------20----------|
------14------17----------|------14h-17------14h-17--|
----------17------14h-17--|--------------------------|
--------------------------|--------------------------|
--------------------------|--------------------------|

--------------------------|--------------------------|
--18----------------------|--17----------------------|
------14------17----------|------14------17----------|
----------15------14h-15--|----------15------14h-15--|
--------------------------|--------------------------|
--------------------------|--------------------------|

--------------------------|----------------|
--17----------18----------|--20------------|
------14----------14--17--|----------------|
----------15--------------|----------------|
--------------------------|----------------|
--------------------------|----------------|

|---17--------20-19----------------------------------------|
|------17--------------------------------------------------|
|---------17--------21\19-19--h21p19h21p19h21p19-----------|
|----------------------------------------------------------|
|----------------------------------------------------------|
|----------------------------------------------------------|


gtr 2

|---3p1p0h1p0h1p0h1p0h1p0------0--3p1p0h1p0h1p0h1p0h1p0-----|
|-------------------------h1----------------------------1/3-|
|-----------------------------------------------------------|
|-----------------------------------------------------------|
|-----------------------------------------------------------|
|-----------------------------------------------------------|

|---19------------------------------------------------------|
|------19------21-19---------20-----------------------------|
|---------20----------17-16---------------------------------|
|-----------------------------------------------------------|
|-----------------------------------------------------------|
|-----------------------------------------------------------|

   move one inch at.......
|----------------------------|
|----------------------------|
|--10--9--------10--9---7----|2x
|----*--*---------*--*---*---|
|----------------------------|
|----------------------------|
*tremolo pick

|---19------------------------------------------------------|
|------19------21-19---------20-----------------------------|
|---------20----------17-16---------------------------------|
|-----------------------------------------------------------|
|-----------------------------------------------------------|
|-----------------------------------------------------------|


chorus

gtr 1

-----------3-------|-----------0-------|-----------0-------|-----------3-------|
-----1----------1--|-----1----------1--|-----1----------1--|-----1----------1--|
--2-----2----------|--2-----2----------|--2-----2----------|--2-----2----------|3x
-------------------|-------------------|-------------------|-------------------|
-------------------|-------------------|-------------------|-------------------|
-------------------|-------------------|-------------------|-------------------|


--------------------------|--------------------------|
--10--10--10--10--10--10--|--12--12--12--12--12--12--|
--------------------------|--------------------------|
--------------------------|--------------------------|
--------------------------|--------------------------|
--------------------------|--------------------------|

--------------------------|--------------------------|
--13--13--13--13--13--13--|--15--15--15--15--15--15--|
--------------------------|--------------------------|
--------------------------|--------------------------|
--------------------------|--------------------------|
--------------------------|--------------------------|

--13----------13----------|--13----------13----------|
------10----------10------|------10----------10------|
----------12----------12--|----------12----------12--|
--------------------------|--------------------------|
--------------------------|--------------------------|
--------------------------|--------------------------|

--------------------------|--------------------------|--8--------8--------|
----------10----------10--|----------10----------10--|-----5--------5-----|
------12------12----------|--12----------12----------|--------7--------7--|
--14--------------14------|------14----------14------|--------------------|
--------------------------|--------------------------|--------------------|
--------------------------|--------------------------|--------------------|

--8--------8--------|--7--------7--------|--7--------7--------|
-----5--------5-----|-----5--------5-----|-----5--------5-----|
--------7--------7--|--------7--------7--|--------7--------7--|
--------------------|--------------------|--------------------|
--------------------|--------------------|--------------------|
--------------------|--------------------|--------------------|

--13----------13----------|--13----------13----------|
------10----------10------|------10----------10------|
----------12----------12--|----------12----------12--|
--------------------------|--------------------------|
--------------------------|--------------------------|
--------------------------|--------------------------|

--12----------12----------|--10------------|
------10----------10------|----------------|
----------12----------12--|----------------|
--------------------------|----------------|
--------------------------|----------------|
--------------------------|----------------|

gtr 2

                       1.3.5           2             4             6
|---------------------------|-----------|-------------|----12-------|
|--12b13r12-10--12b13r12-10-|----10---8-|----10-13-12-|-15----13-12-|
|---------------------------|-12----9---|-12----------|-------------|
|---------------------------|-----------|-------------|-------------|
|---------------------------|-----------|-------------|-------------|
|---------------------------|-----------|-------------|-------------|

|-------10----10----------10----10-------------12----12----15-|
|-12-12----12----12--12-12----12----12---15-15----15----15----|
|-------------------------------------------------------------|
|-------------------------------------------------------------|
|-------------------------------------------------------------|
|-------------------------------------------------------------|

                         1.3           2             4
|---------------------------|-----------|-------------|
|--12b13r12-10--12b13r12-10-|----10---8-|----10-------|
|---------------------------|-12----9---|-12----9-7---|
|---------------------------|-----------|-------------|
|---------------------------|-----------|-------------|
|---------------------------|-----------|-------------|


|---------------------------------------------------|
|--12b13r12-10--12b13r12-10-------------------------|
|-\_______________________/----9--------------------|
|-----------3x--------------------------------------|
|---------------------------------------------------|
|---------------------------------------------------|


Verse 2

gtr 1

------------|
------------|
--5---10----|4x
--7---12----|
------------|
------------|

|---17--------20-19----------------------------------------|
|------17--------------------------------------------------|
|---------17--------21\19-19--h21p19h21p19h21p19-----------|
|----------------------------------------------------------|
|----------------------------------------------------------|
|----------------------------------------------------------|


gtr 2

|---------------------------------------------------|
|------------------------------8*-10*-12b13r12-10-8-|
|--_4x_------------------7*-9*----------------------|2x
|-/----\------------7*-9----------------------------|
|------------7*-10*---------------------------------|
|--1-3*---------------------------------------------|

*tremolo pick


|---19------------------------------------------------------|
|------19------21-19---------20-----------------------------|
|---------20----------17-16---------------------------------|
|-----------------------------------------------------------|
|-----------------------------------------------------------|
|-----------------------------------------------------------|

bridge

gtr 1

--15----------15----------|--15----------15----------|
------12----------12------|------12----------12------|
----------14----------14--|----------14----------14--|
--------------------------|--------------------------|
--------------------------|--------------------------|
--------------------------|--------------------------|

--12----------12----------|--12----------12----------|
------12----------12------|------12----------12------|
----------14----------14--|----------14----------14--|
--------------------------|--------------------------|
--------------------------|--------------------------|
--------------------------|--------------------------|

--15----------15----------|--15----------15----------|
------12----------12------|------12----------12------|
----------14----------14--|----------14----------14--|
--------------------------|--------------------------|
--------------------------|--------------------------|
--------------------------|--------------------------|

--12----------12----------|--13----------13----------|
------12----------12------|------12----------12------|
----------14----------14--|----------14----------14--|
--------------------------|--------------------------|
--------------------------|--------------------------|
--------------------------|--------------------------|

--15----------15----------|--15----------15----------|
------12----------12------|------12----------12------|
----------14----------14--|----------14----------14--|
--------------------------|--------------------------|
--------------------------|--------------------------|
--------------------------|--------------------------|

--12----------12----------|--12----------12----------|
------12----------12------|------12----------12------|
----------14----------14--|----------14----------14--|
--------------------------|--------------------------|
--------------------------|--------------------------|
--------------------------|--------------------------|

--15----------15----------|--15----------15----------|
------12----------12------|------12----------12------|
----------14----------14--|----------14----------14--|
--------------------------|--------------------------|
--------------------------|--------------------------|
--------------------------|--------------------------|

--17----------17----------|--17----------17----------|
------15----------15------|------15----------15------|
----------14----------14--|----------14----------14--|
--------------------------|--------------------------|
--------------------------|--------------------------|
--------------------------|--------------------------|


gtr 2

|----------------------------------------------------------|
|-13-12-10---10/13-13-12-8-5-------------------------------|
|----------------------------------------------------------|
|----------------------------------------------------------|
|----------------------------------------------------------|
|----------------------------------------------------------|

|----------------------------------------------------------|
|-13-12---12\5-5-3-----13-12-13-15--17-15-18---------------|
|----------------------------------------------------------|
|----------------------------------------------------------|
|----------------------------------------------------------|
|----------------------------------------------------------|





Comments


Popular Circa Survive tabs & chords
Act Appalled Bass Tabs
Great Golden Baby Bass Tabs
Sharp Practice Chords
Spirit Of The Stairwell 3 Chords
Close Your Eyes To See Intro Tabs
Great Golden Baby Intro Tabs
Stone Hearted Man Tabs
Every Way Ukulele
Long Time Coming Ukulele
Spirit Of The Stairwell Ukulele


Song lyrics



↑ Back to top | Tablatures and chords are parodies/interpretations of the original songs. You may use it for private study, scholarship, research or language learning purposes only
© 2014 AZChords.com Contact us | Privacy policy | DMCA | Add/correct tabs | Request tabs | Top 50 tabs