» » »

Circa Survive, I Felt Free Bass tabs (ver.1)

Artists:  A B C D E F G H I J K L M N O P Q R S T U V W X Y Z # 

I Felt Free Bass tabs (ver.1)

Circa Survive Tabs
 Rating:
4.2/5 (5 votes)
I Felt Free lessons Tabs too difficult? Try these video lessons and learn fast
                -------------------------------------------------------------------------------
-------------------------------------------------------------------------------


 Tuning:Drop D

 Intro x2
G|-------------------------------------|
D|---------66666666-4444444444444444---|
A|77777777-----------------------------|
D|-------------------------------------|

 Interlude
G|--------------------------|
D|--------------------------|
A|--------------------------|
D|6-6--6-6--6-6--6-6--------|

 Verse 
G|------------------------------------------|
D|------------------------------------------|
A|--------------------8-8--4-4--------------|
D|6-6--6-6--6-6--6-6------------6-6--6-6----|

G|-----------------------------------------|
D|-----------------------------------------|
A|--------------------8-8--4-4-------------|
D|6-6--6-6--6-6--6-6------------6-6--6-----|

 Chorus
G|-------------------------------------|
D|---------66666666-4444444444444444---|
A|77777777-----------------------------|
D|-------------------------------------|

G|--------------------------------------|
D|---------66666666-4444444444444-9-8---|
A|77777777----------------------------9-|
D|--------------------------------------|

G|-------------------------------------|
D|---------66666666-4444444444444444---|
A|77777777-----------------------------|
D|-------------------------------------|

 Interlude
G|--------------------------|
D|--------------------------|
A|--------------------------|
D|6-6--6-6--6-6--6-6--------|

 Verse

 Chorus

G|-----------------|
D|-----------------|
A|-----------------|
D|6-6--6-6---------|

 Bridge x2
G|-------------------------------------|
D|-------------------------------------|
A|77777777-----------------------------|
D|---------66666666-4444444444444444---|

G|-----------------------------------------------------------------------|
D|-----------------------------------------------------------------------|
A|-----------------------------------------------------------------------|
D|2222222222222222-4444444444444444-2222222222222222-66666666-44444444---|

G|----------------------------------------------------------------------------------|
D|11111111111111111-99999999-88888888-99999999--------------------------------------|
A|---------------------------------------------------------------------/999999999---|
D|---------------------------------------------44444444444444444444444--------------|

 x2
G|--------------------|
D|------6~---4~-------|
A|7~------------------|
D|--------------------|

 Chorus
G|-------------------------------------|
D|---------66666666-4444444444444444---|
A|77777777-----------------------------|
D|-------------------------------------|
G|-------------------------------------|
D|---------66666666-4444444444444444---|
A|77777777-----------------------------|
D|-------------------------------------|

G|--------------------------------------|
D|---------66666666-4444444444444-9-8---|
A|77777777----------------------------9-|
D|--------------------------------------|

G|-----------------------|
D|---------66666666-4~---|
A|77777777---------------|
D|-----------------------|
            
Submit corrections

comments powered by Disqus
↑ Back to top | Circa Survive Bass for I Felt Free. Lyrics for acoustic guitar and electric guitar. Tablatures and chords are parodies/interpretations of the original songs. You may use it for private study, scholarship, research or language learning purposes only