» » »

Circa Survive, House Of Leaves Bass tabs (ver.1)

Artists:  A B C D E F G H I J K L M N O P Q R S T U V W X Y Z # 

House Of Leaves Bass tabs (ver.1)

Circa Survive Tabs
 Rating:
4/5 (4 votes)
House Of Leaves lessons Tabs too difficult? Try these video lessons and learn fast
1
                HOUSE OF LEAVES (Bassline)
As recorded by Circa Survive
(From the 2005 Album JUTURNA)

	

Words and Music by Circa Survive
Arranged by Circa Survive

Gtr I (Eb Ab Db Gb) - 'Untitled'

 Verse
  '=123
 5/32  3/4
  Gtr I
  W     H.        H.         H.        H     Q
|---||----------|---------|----------|-----------|
|---||o---------|---------|----------|-----------|
|---||o-0-------|-2-------|-/7-------|-2----/7---|
|---||----------|---------|----------|-----------|


  Q    Q  Q    Q  Q  Q    H.        +H.     4x
|------------|----------|---------|---------||
|------------|----------|---------|--------o||
|-5--/12--8--|-7--5--7S=|=2-------|-(2)----o||
|------------|----------|---------|---------||


  +H.        +H.
|----------|--------|
|----------|--------|
|-(2)------|-(2)----|
|----------|--------|


 Bridge
  Wx12
|---------|
|---------|
|---------|
|---------|


 Chorus
  Q.   Q.     Q.   Q  E   Q.   Q.     Q.   Q  E
|-----------|-----------|-----------|-------------|
|-----------|-----------|-----------|-------------|
|-----------|-----------|-----------|-------------|
|-5----5----|-5----5--5s|=3----3----|-3----3--3s==|


    Q.   Q.     Q.   Q  E   Q.   Q.     Q.   Q  E
||------------|-----------|-----------|------------|
||o-----------|-----------|-----------|------------|
||o-----------|-----------|-----------|------------|
||--5----5----|-5----5--5s|=3----3----|-3----3--3s=|


  Q.   Q.     Q.   Q  E   Q.   Q.     Q.   Q  E
|-----------|-----------|-----------|-------------||
|-----------|-----------|-----------|------------o||
|-----------|-----------|-----------|------------o||
|-5----5----|-5----5--5s|=3----3----|-3----3--3---||


   Verse
    Q    Q  Q    Q  Q  Q     Q   Q  Q     Q    Q  Q
||-------------|-----------|-----------|-------------|
||o------------|-----------|-----------|-------------|
||o------------|-----------|-----------|-------------|
||--5--/12--8--|-7--5--7\--|-0--/7--3--|-/7--/12--7--|


  Q  Q  Q    E E  Q  Q    H.        H.     4x
|----------|------------|---------|--------||
|----7-----|------------|---------|-------o||
|-5-----5--|-5s8-12--8--|-7-------|-------o||
|----------|------------|---------|-7------||


   Chorus
    Q.   Q  E   Q.   Q  E   Q.   Q  E   Q.   Q  E  4x
||------------|-----------|-----------|------------||
||o-----------|-----------|-----------|-----------o||
||o-----------|-----------|-----------|-----------o||
||--5----5--5-|-5----5--5s|=3----3--3-|-3----3--3--||


   Bridge
    Q.   Q  E   Q.   Q  E   Q.   Q  E   Q.   Q  E  4x
||------------|-----------|-----------|------------||
||o-----------|-----------|-----------|-----------o||
||o-----------|-----------|-----------|-----------o||
||--5----5--5-|-5----5--5s|=3----3--3-|-3----3--3--||


   Build Up
    Q.   E Q    Q.   E Q    Q.   E Q    Q.   E Q
||------------|-----------|-----------|------------|
||o-----------|-----------|-----------|------------|
||o-----------|-----------|-----------|------------|
||--5----5-5--|-5----5-5s=|=3----3-3--|-3----3-3s==|


  Q.   E Q    Q.   E Q    Q.   E Q    Q.   E Q
|-----------|-----------|-----------|-------------||
|-----------|-----------|-----------|------------o||
|-----------|-----------|-----------|------------o||
|-1----1-1--|-1----1-1--|-1----1-1--|-1----1-1----||


   Interlude
    Q.   E Q    Q.   E Q    Q.   E Q    Q.   E Q
||------------|-----------|-----------|------------|
||o-----------|-----------|-----------|------------|
||o-----------|-----------|-----------|------------|
||--5----5-5--|-5----5-5s=|=3----3-3--|-3----3-3s==|


  Q.   E Q    Q.   E Q    Q.   E Q    Q.   E Q
|-----------|-----------|-----------|-------------||
|-----------|-----------|-----------|------------o||
|-----------|-----------|-----------|------------o||
|-1----1-1--|-1----1-1--|-1----1-1--|-1----1-1----||


   Outro
    Q.   E Q    Q.   E Q    Q.   E Q    Q.   E Q
||------------|-----------|-----------|-----------|
||o-----------|-----------|-----------|-----------|
||o-----------|-----------|-----------|-----------|
||--5----5-5--|-5----5-5s=|=3----3-3--|-3----3-3--|


  Q.   E Q    Q.   E Q    Q.   E Q    Q.   E Q
|-----------|-----------|-----------|-------------||
|-----------|-----------|-----------|------------o||
|-----------|-----------|-----------|------------o||
|-1----1-1--|-1----1-1--|-1----1-1--|-1----1-1----||


  >
  H.        +H.        +H.        +H.
|---------|----------|----------|--------*|
|---------|----------|----------|--------*|
|---------|----------|----------|--------*|
|-0-------|-(0)------|-(0)------|-(0)----*|



Duration Legend
---------------
W - whole; H - half; Q - quarter; E - 8th; S - 16th; T - 32nd; X - 64th; a - acciaccatura
+ - note tied to previous; . - note dotted; .. - note double dotted
Uncapitalized letters represent notes that are staccato (1/2 duration)
Irregular groupings are notated above the duration line
Duration letters will always appear directly above the note/fret number it represents the
duration for.  Duration letters with no fret number below them represent rests.  Multi-
bar rests are notated in the form Wxn, where n is the number of bars to rest for.  Low
melody durations appear below the staff

Tablature Legend
----------------
 h   - hammer-on
 p   - pull-off
 b   - bend
 pb  - pre-bend
 r   - bend release (if no number after the r, then release immediately)
 /\  - slide into or out of (from/to "nowhere")
 s   - legato slide
 S   - shift slide
 - natural harmonic
[n]  - artificial harmonic
n(n) - tapped harmonic
 ~   - vibrato
 tr  - trill
 T   - tap
 TP  - trem. picking
 PM  - palm muting
\n/  - tremolo bar dip; n = amount to dip
 \n  - tremolo bar down
 n/  - tremolo bar up
/n\  - tremolo bar inverted dip
 =   - hold bend; also acts as connecting device for hammers/pulls
 <> - volume swell (louder/softer)
 x   - on rhythm slash represents muted slash
 o   - on rhythm slash represents single note slash

Misc Legend
-----------
 |  - bar
||  - double bar
||o - repeat start
o|| - repeat end
*|  - double bar (ending)
 :  - bar (freetime)
 $  - Segno
 &  - Coda
Tempo markers -  = BPM(8/16=s8/s16), where s8 = swing 8ths, s16 = swing 16ths
            
Submit corrections

comments powered by Disqus
↑ Back to top | Circa Survive Bass for House Of Leaves. Lyrics for acoustic guitar and electric guitar. 1 Tablatures and chords are parodies/interpretations of the original songs. You may use it for private study, scholarship, research or language learning purposes only