» » »

Circa Survive, Drug Dealer Tabs (ver.1)

Artists:  A B C D E F G H I J K L M N O P Q R S T U V W X Y Z # 

Drug Dealer Tabs (ver.1)

Circa Survive Tabs
Rating:
0/5 (0 votes)
Drug Dealer lessons Tabs too difficult? Try these video lessons and learn fast
                First of all, this is really just Anthony Green,
not Circa Survive.


I found this basically off watching videos 

(i.e  
or 

I am not completely sure if this is how you play it, 
however, I tried, you know?
Give me some feedback. 
so that I can use your version, or whatever.
Thanks.




VERSE

|-0--0--0---------0--0-0---------|
|-3--0--0---------3--0-0---------|
|-3--2--0---------3--2-0---------|   X 2
|-3--2--2---3/5---3--2-2--3/5----|
|-------3---3/5--------3--3/5----|
|-----------1/3-----------1/3----|

"If you found something so unnecessary
Get down there’s no one else to blame
I need something stronger something extra strength
Have millions of materials to trade"

or the other verse

"I use to lie
And everyone I know
Seems to hate them self
But I do it as well
We need something stronger something extra strength
Half millions of recordings that are fake"

PRE-CHORUS
|--0--------|
|--1--------|
|--0--------|
|--2--------|
|--3--------|
|-----------|

"If you came around enough"

or the other,

"If you could offer only love"


CHORUS

|--0---1---1----------------|
|--1---1---1----------------|
|--0---0---3----------------|
|--2---3---2----------------|
|--3---3--------------------|
|---------------------------|



"You'd be like a god to us
Like a drug dealer
Our souls out of trust
You threw it away
You'd be like a god to us
Like a fool's healer
Like a tarot card reader
Never gets right
If you throw it all away"




ORDER:
VERSE
PRE-CHORUS
CHORUS
VERSE
PRE-CHORUS
CHORUS
            

comments powered by Disqus
↑ Back to top | Circa Survive Tabs for Drug Dealer. Lyrics for acoustic guitar and electric guitar. Tablatures and chords are parodies/interpretations of the original songs. You may use it for private study, scholarship, research or language learning purposes only