» » »

Circa Survive, Compendium Bass tabs (ver.1)

Artists:  A B C D E F G H I J K L M N O P Q R S T U V W X Y Z # 

Compendium Bass tabs (ver.1)

Circa Survive Tabs
Rating:
0/5 (0 votes)
Hard to play? Try these video lessons and learn fast.
                -------------------------------------------------------------------------------
-------------------------------------------------------------------------------


 Tuning:Drop D

 x2 (0.24)
G|-------------------------------------------------------|
D|-----22--------222---4---------------------------------|
A|22-4----2-4--------4--------0~--0-0--------------------|
D|-----------------------4-------------4~--4-4-----------|

 Pause

 x3 (0.58)
G|--------------------------------------------------------|
D|--------------------------------------------------------|
A|222222222222-444444444444-000000000000------------------|
D|---------------------------------------444444444444-----|

G|----------------------------------------------|
D|----------------------------------------------|
A|222222222222-444444444444-000000000000--------|
D|---------------------------------------4~-----|
            

comments powered by Disqus
↑ Back to top | Circa Survive Bass for Compendium. Lyrics for acoustic guitar and electric guitar. Tablatures and chords are parodies/interpretations of the original songs. You may use it for private study, scholarship, research or language learning purposes only