» » »

Choking Victim, Money Bass tabs (ver.2)

Artists:  A B C D E F G H I J K L M N O P Q R S T U V W X Y Z # 

Money Bass tabs (ver.2)

Choking Victim Tabs
Rating:
2/5 (1 vote)
Money lessons Tabs too difficult? Try these video lessons and learn fast
                -------------------------------------------------------------------------------
			    Money - Choking Victim
-----------------------------------------------------------------------------


Tuning: Standard

intro/verse
G|--------------------------------|
D|-------------------66---6-------|x8
A|----------00-7-0------8---------|
E|--------------------------------|

Chorus
G|----44444444-------------------77777777--|
D|-------------00000000-77777777-----------|x2
A|-----------------------------------------|
E|-----------------------------------------|

Pre Verse
G|-------------------------------------|
D|--------------66---6-----------6666--|x2
A|-----00-7-0------8-----00-7-0--------|
E|-------------------------------------|

Verse x4
chorus x7
verse x12
pre Verse x1


G|----4--------7--|
D|-------0--7-----|x2
A|----------------|
E|----------------|

chorus x 4 
            
Submit corrections

comments powered by Disqus
↑ Back to top | Choking Victim Bass for Money. Lyrics for acoustic guitar and electric guitar. Tablatures and chords are parodies/interpretations of the original songs. You may use it for private study, scholarship, research or language learning purposes only