» » »

Money Bass tabs (ver.1)

Artists:  A B C D E F G H I J K L M N O P Q R S T U V W X Y Z # 

Money Bass tabs (ver.1)

Choking Victim
Rating:
5/5 (1 vote)

Hard to play? Try these video lessons and learn fast.
                -------------------------------------------------------------------------------
-------------------------------------------------------------------------------


Update: Sorry scabies and gentlemen, I did this really quickly so the Chorus was wrong. 
I moved everything up 1 fret and now it sounds better but it could still be one more up... you decide.

Tuning: EADG
Intro/Verse:
G|---------------------------------------|
D|-----7-----8---------------------------| (x8)
A|-/55---/66-----------------------------|
E|---------------------------------------|

Chorus:
G|---------------------------------------|
D|---------------------------------------| (x2)
A|-------------------77777777------------|
E|-44444444-55555555----------77777777---|

Verse II:
G|-------------------------|
D|-----7-----8----7--------|
A|-/55---/66---/55--/666---|
E|-------------------------|

Death Metal-y Heavy Part:
G|------------------|
D|------------------|
A|------------------|
E|-0000000000000000-|

Pre-Chorus or Some sh*t:
G|-----------------------------------------------------------------------------------|
D|-----------------------------------------------------------------------------------|
A|----------7~-----------------------------------------------------------------------|
E|-4~--5~------7~--------------------------------------------------------------------|

Outro:
G|---------------------------------------------------------------------------------------|
D|---------------------------------------------------------------------------------------|
A|---------------------------------------------------------------------------------------|
E|-7-5-4-2-00000000~---------------------------------------------------------------------|

| /  slide up
| ~  hold that sh*t!

That's all, Dick.
            
Hard to play? Try these video lessons and learn fast. | Correct




comments powered by Disqus
↑ Back to top | Tablatures and chords are parodies/interpretations of the original songs. You may use it for private study, scholarship, research or language learning purposes only