>
 >
Money

Money Guitar Tabs

Choking Victim - Money chords, tabs, tablatures, lyrics

Guitar lessons | Add/correct | Request | Top 50 tabs Artists:  A B C D E F G H I J K L M N O P Q R S T U V W X Y Z 0-9

Money Guitar Tabs – Choking Victim

CD, Sheet music, Poster

Do you like Money? Share with your friends now
Bass TabsBass Tabs v2Tabs
-------------------------------------------------------------------------------
No Gods, No Managers
-------------------------------------------------------------------------------

Tuning: Guitars 1, 3, and 4 are tuned down one half-step (Eb Ab Db Gb Bb eb)
        Guitar 2 is in standard tuning (EADGBe)

Guitar 1: Overdriven guitar
Guitar 2: Clean ska guitar
Guitar 3: Second overdriven guitar
Guitar 4: Third Overdriven guitar

Guitar 1:
e|-7---------8--------7---------8--8--8--8-|
B|-8---------9--------8---------9--9--9--9-|
G|-9--------10--------9--------10-10-10-10-|
D|-9--------10--------9--------10-10-10-10-|
A|-7---------8--------7---------8--8--8--8-|
E|-7---------8--------7---------8--8--8--8-|

Guitar 2:
e|-6-6-X-6-X-6-X-6-7-7-X-7-X-7-X-7-|     e|-6-6-X-6-X-6-X-6-7-7-7-7-7-7-7-7-|
B|-7-7-X-7-X-7-X-7-8-8-X-8-X-8-X-8-|     B|-7-7-X-7-X-7-X-7-8-8-8-8-8-8-8-8-|
G|-8-8-X-8-X-8-X-8-9-9-X-9-X-9-X-9-|     G|-8-8-X-8-X-8-X-8-9-9-9-9-9-9-9-9-|
D|---------------------------------|     D|---------------------------------|
A|---------------------------------|     A|---------------------------------|
E|---------------------------------| x3  E|---------------------------------|
Guitar 1:
e|---------------------------------|     e|---------------------------------|
B|---------------------------------|     B|---------------------------------|
G|---------------------------------|     G|-----------------------------12\-|
D|---------------------------------|     D|-----------------------------12\-|
A|---------------------------------|     A|-----------------------------10\-|
E|---------------------------------| x3  E|---------------------------------|

Guitars 1 & 3:
e|-----------------------------------------------------------------|
B|-----------------------------------------------------------------|
G|---------------------------------9-9-9-9-9-9-9-9-----------------|
D|-6-6-6-6-6-6-6-6-7-7-7-7-7-7-7-7-9-9-9-9-9-9-9-9-9-9-9-9-9-9-9-9-|
A|-6-6-6-6-6-6-6-6-7-7-7-7-7-7-7-7-7-7-7-7-7-7-7-7-9-9-9-9-9-9-9-9-|
E|-4-4-4-4-4-4-4-4-5-5-5-5-5-5-5-5-----------------7-7-7-7-7-7-7-7-| x2

Guitar 2:
e|-6-6-X-6-X-6-X-6-7-7-X-7-X-7-X-7-6-6-X-6-X-6-X-6-7--7--7----|
B|-7-7-X-7-X-7-X-7-8-8-X-8-X-8-X-8-7-7-X-7-X-7-X-7-8--8--8----|
G|-8-8-X-8-X-8-X-8-9-9-X-9-X-9-X-9-8-8-X-8-X-8-X-8-9--9--9----|
D|------------------------------------------------------------|
A|------------------------------------------------------------|
E|------------------------------------------------------------|

Guitar 2:
e|-6-6-X-6-X-6-X-6-7-7-X-7-X-7-X-7-6-6-X-6-X-6-X-6-7-7-7----|
B|-7-7-X-7-X-7-X-7-8-8-X-8-X-8-X-8-7-7-X-7-X-7-X-7-8-8-8----|
G|-8-8-X-8-X-8-X-8-9-9-X-9-X-9-X-9-8-8-X-8-X-8-X-8-9-9-9----|
D|----------------------------------------------------------|
A|----------------------------------------------------------|
E|----------------------------------------------------------|

Guitar 2:
e|-6-6-X-6-X-6-X-6-7-7-X-7-X-7-X-7-|     e|-6-6-X-6-X-6-X-6-7-7-7-7-7-7-7-7-|
B|-7-7-X-7-X-7-X-7-8-8-X-8-X-8-X-8-|     B|-7-7-X-7-X-7-X-7-8-8-8-8-8-8-8-8-|
G|-8-8-X-8-X-8-X-8-9-9-X-9-X-9-X-9-|     G|-8-8-X-8-X-8-X-8-9-9-9-9-9-9-9-9-|
D|---------------------------------|     D|---------------------------------|
A|---------------------------------|     A|---------------------------------|
E|---------------------------------| x3  E|---------------------------------|
Guitar 1:
e|---------------------------------|     e|---------------------------------|
B|---------------------------------|     B|---------------------------------|
G|---------------------------------|     G|-----------------------------11\-|
D|---------------------------------|     D|-----------------------------11\-|
A|---------------------------------|     A|------------------------------9\-|
E|---------------------------------| x3  E|---------------------------------|

Guitars 1 & 3:
e|-----------------------------------------------------------------|
B|-----------------------------------------------------------------|
G|---------------------------------9-9-9-9-9-9-9-9-----------------|
D|-6-6-6-6-6-6-6-6-7-7-7-7-7-7-7-7-9-9-9-9-9-9-9-9-9-9-9-9-9-9-9-9-|
A|-6-6-6-6-6-6-6-6-7-7-7-7-7-7-7-7-7-7-7-7-7-7-7-7-9-9-9-9-9-9-9-9-|
E|-4-4-4-4-4-4-4-4-5-5-5-5-5-5-5-5-----------------7-7-7-7-7-7-7-7-| x4

Guitars 1 & 3 & 4:
e|---------------------------------------------------------|
B|---------------------------------------------------------|
G|-----------------------------9-9-9--9-9-9----------------|
D|-6-6-6--6-6-6--7-7-7--7-7-7--9-9-9--9-9-9--9-9-9--9-9-9--|
A|-6-6-6--6-6-6--7-7-7--7-7-7--7-7-7--7-7-7--9-9-9--9-9-9--|
E|-4-4-4--4-4-4--5-5-5--5-5-5-[X-X]--[X-X]---7-7-7--7-7-7--|
  [X-X]  [X-X]  [X-X]  [X-X]                [X-X]  [X-X]

Guitars 1 & 3 & 4:
e|-------------------------------------------------------|
B|-------------------------------------------------------|
G|-----------------------------9-9-9--9-9-9--------------|
D|-6-6-6--6-6-6--7-7-7--7-7-7--9-9-9--9-9-9-9-9-9-9-9-9--|
A|-6-6-6--6-6-6--7-7-7--7-7-7--7-7-7--7-7-7-9-9-9-9-9-9--|
E|-4-4-4--4-4-4--5-5-5--5-5-5-[X-X]--[X-X]--7-7-7-7-7-7--|
  [X-X]  [X-X]  [X-X]  [X-X]                

Guitars 1 & 3 & 4:
e|-----0--0--0--------------------------------------0---------------------|
B|-----0--0--0--------------------------------------0---------------------|
G|-10-10-10-10-----------------9---9-9-9-9-9-9--10-10---------------------|
D|-10-10-10-10-----------------9---9-9-9-9-9-9--10-10---------------------|
A|--8--8--8--8--(random noise)-7---7-7-7-7-7-7---8--8-(more random noise)-|
E|--0--0--0--0-----------------------------------0--0---------------------|

Guitar 1
e|---------------------------------|
B|---------------------------------|
G|---------------------------------|
D|-9-(let ring for a while)--------|
A|-7-------------------------------|
E|-0-------------------------------|
Guitar 2:
e|-6-6-X-6-X-6-X-6-7-7-X-7-X-7-X-7-|
B|-7-7-X-7-X-7-X-7-8-8-X-8-X-8-X-8-|
G|-8-8-X-8-X-8-X-8-9-9-X-9-X-9-X-9-|
D|---------------------------------|
A|---------------------------------|
E|---------------------------------| x2

Guitars 1 & 3:            Guitars 1 & 3:
e|-----------------|     e|---------------------------|
B|-----------------|     B|---------------------------|
G|-9----10--12--14-|     G|---------------------------|
D|-----------------|     D|---------------------------|
A|-7-----8--10--12-|     A|-0--0-0-0-0-0-0-1--1-3--3--|
E|-----------------| x4  E|-0--0-0-0-0-0-0-1--1-3--3--| x4
                              [X-X-X-X-X-X]
Guitar 2:
e|-6-6-X-6-X-6-X-6-7-7-X-7-X-7-X-7-6-6-X-6-X-6-X-6-7--7--7----|
B|-7-7-X-7-X-7-X-7-8-8-X-8-X-8-X-8-7-7-X-7-X-7-X-7-8--8--8----|
G|-8-8-X-8-X-8-X-8-9-9-X-9-X-9-X-9-8-8-X-8-X-8-X-8-9--9--9----|
D|------------------------------------------------------------|
A|------------------------------------------------------------|
E|------------------------------------------------------------|

Guitar 2:
e|-6-6-X-6-X-6-X-6-7-7-X-7-X-7-X-7-6-6-X-6-X-6-X-6-7-7-7----|
B|-7-7-X-7-X-7-X-7-8-8-X-8-X-8-X-8-7-7-X-7-X-7-X-7-8-8-8----|
G|-8-8-X-8-X-8-X-8-9-9-X-9-X-9-X-9-8-8-X-8-X-8-X-8-9-9-9----|
D|----------------------------------------------------------|
A|----------------------------------------------------------|
E|----------------------------------------------------------|

Guitars 1 & 3:
e|---------------------------------------------------|
B|---------------------------------------------------|
G|-8----9----------11----8----9----------11-11-11-11-|
D|-6----7----9^-----9----6----7----9^-----9--9--9--9-|
A|-----------7^--------------------7^----------------|
E|---------------------------------------------------|

Guitar 1 & 3:
e|---------------------------------------------------------|
B|---------------------------------------------------------|
G|-8-8--8-8-8--8-9-9--9-9-9--9-9-9--9-9-9--9---------------|
D|-6-6--6-6-6--6-7-7--7-7-7--7-9-9--9-9-9--9-9-9--9-9-9--9-|
A|-----------------------------7-7--7-7-7--7-9-9--9-9-9--9-|
E|-------------------------------------------7-7--7-7-7--7-|

Guitars 1 & 3:
e|-----------------------------------------------------------|
B|-----------------------------------------------------------|
G|-8-8--8-8-8--8-9-9--9-9-9--9-9-9--9-9-9--9-----------------|
D|-6-6--6-6-6--6-7-7--7-7-7--7-9-9--9-9-9--9-9-9-9-9-9-9-9-9-|
A|-----------------------------7-7--7-7-7--7-9-9-9-9-9-9-9-9-|
E|-------------------------------------------7-7-7-7-7-7-7-7-|

Guitar 1:
e|-----------------------------------------------------------------------------|
B|-----------------------------------------------------------------------------|
G|-13-13--13-13-13--13-14-14--14-14-13\11---------------------16-16--16-16-16--|
D|----------------------------------------14-14--14-14-14--14------------------|
A|-11-11--11-11-11--11-12-12--12-12-11\-9---------------------14-14--14-14-14--|
E|----------------------------------------12-12--12-12-12--12------------------|
Guitar 3:
e|-----------------------------------------------------------|
B|-----------------------------------------------------------|
G|-8-8--8-8-8--8-9-9--9-9-9--9-9-9--9-9-9--9-----------------|
D|-6-6--6-6-6--6-7-7--7-7-7--7-9-9--9-9-9--9-9-9-9-9-9-9-9-9-|
A|-----------------------------7-7--7-7-7--7-9-9-9-9-9-9-9-9-|
E|-------------------------------------------7-7-7-7-7-7-7-7-|

Guitars 1 & 3:
e|-------------------------------------------------------|
B|-------------------------------------------------------|
G|-8-8--8-8-8--8-9-9--9-9-9--9-9-9--9-9-9--9-------------|
D|-6-6--6-6-6--6-7-7--7-7-7--7-9-9--9-9-9--9-9--9--9--9--|
A|-----------------------------7-7--7-7-7--7-9--9--9--9--|
E|-------------------------------------------7--7--7--7--|

Guitars 1 & 3:
e|------------------------------------------------------------|
B|------------------------------------------------------------|
G|-9--9-9-9-9-9-9-9-9-9-9-9-9-9-9-9-9-9-9--9------------------|
D|-9--9-9-9-9-9-9-9-9-9-9-9-9-9-9-9-9-9-9--9------------------|
A|-7--7-7-7-7-7-7-7-7-7-7-7-7-7-7-7-7-7-7--7------------------|
E|------------------------------------------------------------|


| ^  note bend
|[X] palm muted note
| /  slide up
| \  slide down
| h  hammer-on
| p  pull-off
| ~  vibrato
| +  harmonic
| x  Mute note
===============================================================================





Comments


Popular Choking Victim tabs & chords
***Ed Reality 1 Bass Tabs
Apple Pie And Police State Bass Tabs
Apple Pie And Police State 1 Bass Tabs
Five Finger Discount Bass Tabs
I Am Just A Choking Victim Bass Tabs
Infested 2 Bass Tabs
Suicide 1 Bass Tabs
You Oughtta Die Bass Tabs
Crack Rock Steady Tabs
Nobody Is Free Tabs


Song lyrics



↑ Back to top | Tablatures and chords are parodies/interpretations of the original songs. You may use it for private study, scholarship, research or language learning purposes only
© 2014 AZChords.com Contact us | Privacy policy | DMCA | Add/correct tabs | Request tabs | Top 50 tabs