» » »

Infested Tabs (ver.1)

Artists:  A B C D E F G H I J K L M N O P Q R S T U V W X Y Z # 

Infested Tabs (ver.1)

Choking Victim
Rating:
5/5 (4 votes)

Hard to play? Try these video lessons and learn fast.
                Tuning: Standard Eadgbe
h= hammer on

Guitar 1 Intro
e-------------------12----|
b-9-9-10-9-9-12-9-9---9-9-| x4
g-------------------------|
d-------------------------|
a-------------------------|
E-------------------------|

e-----------------12-|
b--9-----10---h12----|
g--------------------|
d--------------------|
a--------------------|
E--------------------|

Verse 1
e-------------------------------------|
b-------------------------------------|
g--999999-----------------------------|
d--999999--777777---11 11 11- 5555555-|
a--777777--777777---11 11 11--5555555-|
E----------555555---99999999--7777777-|

Verse Pt2 SKa Upstrokes

e--------------------------|
b--8-----------------------|
g--9---------6-----10----6-|
d--9---------7-----11----7-|
a--7-x4------7-----11----7-|
E------------5x3---9--x3 5-| x3

Bridge
e-------------------12----|
b-9-9-10-9-9-12-9-9---9-9-| x4
g-------------------------|
d-------------------------|
a-------------------------|
E-------------------------|
            
Hard to play? Try these video lessons and learn fast. | Correct




comments powered by Disqus
↑ Back to top | Tablatures and chords are parodies/interpretations of the original songs. You may use it for private study, scholarship, research or language learning purposes only