» » »

Choking Victim, Infested Bass tabs (ver.2)

Artists:  A B C D E F G H I J K L M N O P Q R S T U V W X Y Z # 

Infested Bass tabs (ver.2)

Choking Victim Tabs
 Rating:
3.6/5 (5 votes)
Infested lessons Tabs too difficult? Try these video lessons and learn fast
                -------------------------------------------------------------------------------
-------------------------------------------------------------------------------


Tuning:standard

intro (0:01)

G|-------------------------------------------------------------------------|
D|-22222222----------------------------------------------------------------|
A|----------00000000-44444444-22222222----------00000000-44444444-22222222-|
E|-------------------------------------00000000----------------------------|

G|-------------------------------------------------------------------------|
D|-22222222----------------------------22222222----------------------------|
A|----------00000000-44444444-22222222----------00000000-44444444-22222222-|
E|-------------------------------------------------------------------------|

vocals come in (0:22)

G|-------------------------------------------------------------------------|
D|-22222222----------------------------22222222----------------------------|
A|----------00000000-44444444-22222222----------00000000-44444444-22-0-----|
E|---------------------------------------------------------------------4-2-|

ska part (0:32)

G|------4444---------------------------------------------------------------|
D|-2-22----------2--------6666---------------------------------------------|
A|-----------0-0---0-4444------2-22-0--------------------------------------|
E|------------------------------------4-2----------------------------------|

chorus (0:53)

G|-------------------------------------------------------------------------|
D|-22222222----------------------------------------------------------------|
A|----------00000000-44444444-22222222----------00000000-44444444-22-0-----|
E|-------------------------------------00000000------------------------4-2-|

ska part (1:04)

G|------4444---------------------------------------------------------------|
D|-2-22----------2--------6666---------------------------------------------|
A|-----------0-0---0-4444------2-22-0--------------------------------------|
E|------------------------------------4-2----------------------------------|

G|------4444---------------------------------------------------------------|
D|-2-22----------2--------6666---------------------------------------------|
A|-----------0-0---0-4444------2-0-----------------------------------------|
E|---------------------------------4-2-0-----------------------------------|

bridge? (1:20)

G|-------------------------------------------------------------------------|
D|-22----------------------------------------------------------------------|
A|-----------00--------44-44-22222222--------------------------------------|
E|-------------------------------------------------------------------------|

chorus (1:24)

G|-------------------------------------------------------------------------|
D|-22222222----------------------------22222222----------------------------|
A|----------00000000-44444444-22222222----------00000000-44444444-22-0-----|
E|---------------------------------------------------------------------4-2-|

breakdown (1:35)

G|-------------------------------------------------------------------------|
D|-2-----------------------------------------------------------------------|
A|----------0--------4--------2----/7-----------0--------4--------2--------|
E|-------------------------------------0-----------------------------------|

G|-------------------------------------------------------------------------|
D|-2-----------------------------------------------------------------------|
A|----------0--------4--------2-----------------0--------4--------2--------|
E|-------------------------------------0-----------------------------------|

G|-------------------------------------------------------------------------|
D|-2------------------------------00-1-------------------------------------|
A|----------0--------4--------2-4------------------------------------------|
E|-------------------------------------------------------------------------|

ska part (2:02)

G|------4444---------------------------------------------------------------|
D|-2-22----------2--------6666---------------------------------------------|
A|-----------0-0---0-4444------2-22-0--------------------------------------|
E|------------------------------------4-2----------------------------------|

G|------4444---------------------------------------------------------------|
D|-2-22----------2--------6666---------------------------------------------|
A|-----------0-0---0-4444------2-0-----------------------------------------|
E|---------------------------------4-2-0-----------------------------------|

outro(2:13)

G|-------------------------------------------------------------------------|
D|-22222-------------------------------22222-------------------------------|
A|----------00000----44444----22222-------------00000----44444----22222222-|
E|-------------------------------------------------------------------------|

G|-------------------------------------------------------------------------|
D|-22222222----------------------------22222222----------------------------|
A|----------00000000-44444444-22222222----------00000000-44444444-22222222-|
E|-------------------------------------------------------------------------|

G|-------------------------------------------------------------------------|
D|-22222222----------------------------------------------------------------|
A|----------00000000-44444444-22222222-------------------------------------|
E|-------------------------------------------------------------------------|

G|-------------------------------------------------------------------------|
D|-22222222----------------------------------------------------------------|
A|----------00000000-44444444-22-0-----------------------------------------|
E|---------------------------------4-2-0-----------------------------------|



| /  slide up
| \  slide down
| h  hammer-on
| p  pull-off
| ~  vibrato
| +  harmonic
| x  Mute note
===============================================================================
            
Submit corrections

comments powered by Disqus
↑ Back to top | Choking Victim Bass for Infested. Lyrics for acoustic guitar and electric guitar. Tablatures and chords are parodies/interpretations of the original songs. You may use it for private study, scholarship, research or language learning purposes only