» » »

Infested Tabs (ver.2)

Artists:  A B C D E F G H I J K L M N O P Q R S T U V W X Y Z # 

Infested Tabs (ver.2)

Choking Victim
Rating:
5/5 (1 vote)

Hard to play? Try these video lessons and learn fast.
                
standard tuning

intro

|---------------------12-|
|-9-9-10--9-9-12--9-9----|
|------------------------|
|------------------------|
|------------------------|
|------------------------|
 do top and bottum 4x
|------------------------|
|-9-9-12--9-9-10-9-------|
|------------------------|
|------------------------|
|------------------------|
|------------------------|
       
        slide
|------------12-------|
|-(9)-10-/12----------|
|---------------------|
|---------------------|
|---------------------|
|---------------------|

Verse 1                                                    ___________
                                                                      |
|---------------------------------------------------------------|     |
|---------------------------------------------------------------|     |
|-99999999------------------------------------------------------|     |
|-99999999--77777777--1111111111111111--99999999----------------| x 2 | DO
|-77777777--77777777--1111111111111111--99999999----------------|     | ALL
|-----------55555555---9-9-9-9-9-9-9-9--77777777----------------|     | OF 
                                                                      | IT
|-----------5x5x5x5x--9-x-9x-9x-9x------7x7x7x7x----------------|     | x2
|-9x9x9x9x--5x5x5x5x--9-x-9x-9x-9x------7x7x7x7x----------------|     |
|-9x9x9x9x--6x6x6x6x--10x10x10x10x------8x8x8x8x----------------|     |
|-9x9x9x9x--7x7x7x7x--11x11x11x11x------9x9x9x9x----------------| x 4 |
|---------------------------------------------------------------|     |
|---------------------------------------------------------------|     |
                                                            __________|

Pre Chorus

|---------------------------------------------------------------| 
|---------------------------------------------------------------| 
|-9-9-----------------------------------------------------------| 
|-9-9-------7-7-------------------------99999999----------------| x 1
|-7-7-------7-7-------11-11--11-11------99999999----------------| 
|-----------5-5-------9--9---9--9-------77777777----------------|

Chorus

|---------------------------------------------------------------|    
|---------------------------------------------------------------|    
|-99999999------------------------------------------------------|    
|-99999999--77777777--1111111111111111--99999999----------------| x 2
|-77777777--77777777--1111111111111111--99999999----------------|     
|-----------55555555---9-9-9-9-9-9-9-9--77777777----------------| 

then bass thing

Bridge no singing

|---------------------12-------------------|
|-9-9-10--9-9-12--9-9-----9-9-12--9-9-10-9-| 
|------------------------------------------|
|------------------------------------------| x 3
|------------------------------------------|
|------------------------------------------|

|---------------------12--|
|-9-9-10--9-9-12--9-9-----|
|-------------------------|
|-------------------------| let ring
|-------------------------|
|-------------------------|

then singing
|---------------------12-------------------|
|-9-9-10--9-9-12--9-9-----9-9-12--9-9-10-9-| 
|------------------------------------------|
|------------------------------------------| x 4
|------------------------------------------|
|------------------------------------------|

Verse 2

|-----------5x5x5x5x--9-x-9x-9x-9x------7x7x7x7x----------------|      
|-9x9x9x9x--5x5x5x5x--9-x-9x-9x-9x------7x7x7x7x----------------|     
|-9x9x9x9x--6x6x6x6x--10x10x10x10x------8x8x8x8x----------------|     
|-9x9x9x9x--7x7x7x7x--11x11x11x11x------9x9x9x9x----------------| x 2
|---------------------------------------------------------------|     
|---------------------------------------------------------------|

Chorus 2
 let ring  let ring     let ring       let ring
|---------------------------------------------------------------|    
|---------------------------------------------------------------|    
|-99999---------------------------------------------------------|    
|-99999-----77777-----11111111111-------99999-------------------| x 2
|-77777-----77777-----11111111111-------99999-------------------|     
|-----------55555------9-9-9-9-9--------77777-------------------| 

Then last thing

|---------------------------------------------------------------|    
|---------------------------------------------------------------|    
|-99999999------------------------------------------------------|    
|-99999999--77777777--1111111111111111--99999999----------------| x 4
|-77777777--77777777--1111111111111111--99999999----------------|     
|-----------55555555---9-9-9-9-9-9-9-9--77777777----------------|

thats all comment guys
            
Hard to play? Try these video lessons and learn fast. | Correct




comments powered by Disqus
↑ Back to top | Tablatures and chords are parodies/interpretations of the original songs. You may use it for private study, scholarship, research or language learning purposes only