» » »

Choking Victim, Crack Rock Steady Tabs (ver.2)

Artists:  A B C D E F G H I J K L M N O P Q R S T U V W X Y Z # 

Crack Rock Steady Tabs (ver.2)

Choking Victim Tabs
Rating:
4/5 (1 vote)
Crack Rock Steady lessons Tabs too difficult? Try these video lessons and learn fast
                INTRO:
E|---------------------------------------------------------------|
B|---------------------------------------------------------------|
G|--------------------------------------------------4------------|
D|------------------------------4-7h---4-7h---4-7h---7-4---------|
A|--4-7h---4-7h---4-7h---4-7h--5-----5-------5-------------------|
E|-5------5------5------5----------------------------------------|


E|---------------------------------------------------------------|
B|---------------------------------------------------------------|
G|---------------------------------------------------------------|
D|---------------------------------------------------------------|
A|--4-7h---4-7h---4-7h---4-7h-------------------------------4----|
E|-5------5------5------5-------0--4-7h---0--4-7h---0--4-7h--7-4-|

Play this twice then the ska part is:

E|-x-5-x-5-x-5-x-5-x-5-x-5-x-5-x-5--x-2-x-2-x-2-x-2-x-2-x-2-x-2-x-2-x-|
B|-x-5-x-5-x-5-x-5-x-5-x-5-x-5-x-5--x-3-x-3-x-3-x-3-x-3-x-3-x-3-x-3-x-|
G|-x-6-x-6-x-6-x-6-x-6-x-6-x-6-x-6--x-2-x-2-x-2-x-2-x-2-x-2-x-2-x-2-x-|
D|-x-7-x-7-x-7-x-7-x-7-x-7-x-7-x-7--x-x-x-x-x-x-x-x-x-x-x-x-x-x-x-x-x-|
A|--------------------------------------------------------------------|
E|--------------------------------------------------------------------|


E|-x-5-x-5-x-5-x-5-x-5-x-5-x-5-x-5--x-4-x-4-x-4-x-4-x-4-x-4-x-4-x-4-x-|
B|-x-5-x-5-x-5-x-5-x-5-x-5-x-5-x-5--x-5-x-5-x-5-x-5-x-5-x-5-x-5-x-5-x-|
G|-x-6-x-6-x-6-x-6-x-6-x-6-x-6-x-6--x-4-x-4-x-4-x-4-x-4-x-4-x-4-x-4-x-|
D|-x-7-x-7-x-7-x-7-x-7-x-7-x-7-x-7--x-x-x-x-x-x-x-x-x-x-x-x-x-x-x-x-x-|
A|--------------------------------------------------------------------|
E|--------------------------------------------------------------------|

The part where the deeper voice sings and the ska stops is:

E|------------------------------------------------------------------|
B|------------------------------------------------------------------|
G|------------------------------------------------------------------|
D|------------------------------------------------------------------|
A|-0000--0000----5555--5555----0000--0000--------------0000--0000---|
E|-----------------------------------------0000--0000---------------|

E|------------------------------------------------------------------|
B|------------------------------------------------------------------|
G|------------------------------------------------------------------|
D|------------------------------------------------------------------|
A|-0000--0000----5555--5555----0000--0000---77--777--77-5-4-2-------|
E|------------------------------------------------------------------|

i dont feel like figuring out the order but it should be easy.
            

comments powered by Disqus
↑ Back to top | Choking Victim Tabs for Crack Rock Steady. Lyrics for acoustic guitar and electric guitar. Tablatures and chords are parodies/interpretations of the original songs. You may use it for private study, scholarship, research or language learning purposes only