» » »

Crack Rock Steady Bass tabs (ver.2)

Artists:  A B C D E F G H I J K L M N O P Q R S T U V W X Y Z # 

Crack Rock Steady Bass tabs (ver.2)

Choking Victim
Rating:
5/5 (3 votes)

Hard to play? Try these video lessons and learn fast.
                -------------------------------------------------------------------------------
-------------------------------------------------------------------------------


Tuning:standard
this is my firt tab so it may not be completely accurate but it sounds right to me
G|---------------------------------------------------------------------------|
D|-0----4----7----0----4----7----0----4----7----0----4----7------------------|
A|---------------------------------------------------------------------------|
E|---------------------------------------------------------------------------|

G|---------------------------------------------------------------------------|
D|---------------------------------------------------------------------------|
A|-0----4----7----0----4----7----0----4----7----7----4----0------------------|
E|---------------------------------------------------------------------------|

G|---------------------------------------------------------------------------|
D|-0----4----7----0----4----7----0----4----7----0----4----7------------------|
A|---------------------------------------------------------------------------|
E|---------------------------------------------------------------------------|

G|-0----4----7----0----4----7----0----4----7----0----4----7------------------|
D|---------------------------------------------------------------------------|
A|---------------------------------------------------------------------------|
E|---------------------------------------------------------------------------|

just repeat that throughout the song and it sounds good
            
Hard to play? Try these video lessons and learn fast. | Correct




comments powered by Disqus
↑ Back to top | Tablatures and chords are parodies/interpretations of the original songs. You may use it for private study, scholarship, research or language learning purposes only