» » »

Choking Victim, Crack Rock Steady Tabs (ver.3)

Artists:  A B C D E F G H I J K L M N O P Q R S T U V W X Y Z # 

Crack Rock Steady Tabs (ver.3)

Choking Victim Tabs
 Rating:
4/5 (4 votes)
Crack Rock Steady lessons Tabs too difficult? Try these video lessons and learn fast
1
                Band - Choking Victim
Song - Crack Rock Steady
Album - No Gods/No Managers


Tuning - Standard (E A D G B E)

.=Palm Mute

Great track by Choking Victim!
CV are know for playing in Eb but this song can be played easily in Standard.

Intro (Lightly Palm Mute)
|--------------------------------|
|--------------------------------|
|--------------------------------|
|--------------------------------|
|-----3-6----3-6----3-6----3-6---|
|-44------44-----44-----44-------|
  ..  . . .. . . .. . . .. . .

|-------------------------------|
|-------------------------------|
|-----------------------3-------|
|-----3-6----3-6----3-6---6-3---|
|-44------44-----44-------------|
|-------------------------------|
  ..  . . .. . . .. . . . . .

|--------------------------------|
|--------------------------------|
|--------------------------------|
|--------------------------------|
|-----3-6----3-6----3-6----3-6---|
|-44------44-----44-----44-------|
  ..  . . .. . . .. . . .. . .

|-----------------------------------|
|-----------------------------------|
|-----------------------------------|
|-----5-8-----5-8-----5-8-----5-8---|
|-66------66------66------66--------|
|-----------------------------------|
  ..  . . ..  . . ..  . . ..  . .

Chorus/Verse 1 
(Play In Ska Rhythm)
  G#    C#    G#    D#
|-4-----------4-----------|
|-4-----6-----4-----8-----|
|-5-----6-----5-----8-----|
|-6-----6-----6-----8-----|
|-6-----4-----6-----6-----|
|-4-----------4-----------|

Verse 2 
(Palm Muted)
|-------------------------------------------------|
|-4444-4444--6666-6666-4444-4444--8888-8888-------|
|-5555-5555--6666-6666-5555-5555--8888-8888-------|
|-6666-6666--6666-6666-6666-6666--8888-8888-------|
|-6666-6666--4444-4444-6666-6666--6666-6666-------|
|-4444-4444------------4444-4444------------------|
  .... ....  .... .... .... ....  .... ....

|-----------------------------------------------------|
|-4444-4444--6666-6666-4444-4444--88-88-8-8-8-8-------|
|-5555-5555--6666-6666-5555-5555--88-88-8-8-8-8-------|
|-6666-6666--6666-6666-6666-6666--88-88-8-8-8-8-------|
|-6666-6666--4444-4444-6666-6666--66-66-6-6-6-6-------|
|-4444-4444------------4444-4444----------------------|
  .... ....  .... .... .... ....  .. .. . . . .

Chorus 2
(Ska Rhythm)
|-4-----------4--NOW-----|
|-4-----6-----4--STOP!---|
|-5-----6-----5----------|
|-6-----6-----6----------|
|-6-----4-----6----------|
|-4-----------4----------|

Outro
  (Ska  Rhythm)
|-4-----------4--|-----------|
|-4-----6-----4--|-8-8-8-8-8-|
|-5-----6-----5--|-8-8-8-8-8-| !CRACK ROCK STEADY!
|-6-----6-----6--|-8-8-8-8-8-|
|-6-----4-----6--|-6-6-6-6-6-|
|-4-----------4--|-----------|


Intro   x2
Chorus  x1
Verse 1 x2
Chorus  x1
Verse 2 x1
Chorus  x1
Verse 1 x2
Chorus  x1
Verse 2 x1
Chorus  x1
Chors 2 x1
Chorus2 x1(Tempo Change i.e Gets Faster)
Outro   x1

There You Go, Awesome Track!

Rate & Comments Are Appriciated :)
            
Submit corrections

comments powered by Disqus
↑ Back to top | Choking Victim Tabs for Crack Rock Steady. Lyrics for acoustic guitar and electric guitar. 1 Tablatures and chords are parodies/interpretations of the original songs. You may use it for private study, scholarship, research or language learning purposes only