» » »

Chimaira, Dead Inside Tabs (ver.3)

Artists:  A B C D E F G H I J K L M N O P Q R S T U V W X Y Z # 

Dead Inside Tabs (ver.3)

Chimaira Tabs
 Rating:
4/5 (4 votes)
Dead Inside lessons Tabs too difficult? Try these video lessons and learn fast
1
                Tuning: A,E,A,D,g,b,e
Key:  * = palm mute    p = pull-off       / = slide
      ^ = bend        <#>= harmonic  
      h = hammer-on    x = muted string


|-----|------------------------------------|
|---9-|------------------------------------|
|-----|------------------------------------|
|---6-|------------------------------------|
|-----|------------------------------------|
|-----|---3-3-3-3-3----3-3-3-3-3-----------|
|-----|---3-3-3-3-3----3-3-3-3-3----2^-----|
          * * * * *    * * * * *


|-------------------------------------------|----------------------|
|------------------------------------------*|----------------------|
|-------------------------------------------|----------------------|
|-------------------------------------------|----------------------|
|-------------------------------------------|----------------------|
|------------<7>-----------------------<7>-*|----------------------|
|--0h1p0---<5>---1--0-----0h1p0-----<5>-----|--1-1-1---3-3-3---4---|


|---------------------------------------|------------------------------|
|--------------------------------------*|------------------------------|
|-10/9---9--10/9---9--10/9---10/12--12--|-10/9--9--10/9--9--12-12------|
|--x-x---x---x-x---x---x-x----x--x---x--|--x-x--x---x-x--x---x--x------|
|--8/7---7---8/7---7---8/7----8/10--10--|--8/7--7---8/7--7--10-10-13---|
|--------------------------------------*|------------------------------|
|---------------------------------------|------------------------------|


|---------------------------------------------------------|
|---------------------------------------------------------|
|---------------------------------------------------------|
|---------------------------------------------------------|
|--------------------------------<7>----------------------|
|--0--0--0--0--0-----0---5---------------------------1----|
|--0--0--0--0--0-----0--------------0-----6p0--/2----1----|
   *  *  *  *  *     *              


|--------------------------------------|
|--------------------------------------|
|--------------------------------------|
|--------------------------------------|
|--------------------------------------|
|--------------------------------------|
|---1111111-0-----1111111-0----11110---|
    ******* *     ******* *    *****

|-----------------------------------|---------------------------|
|-----------------------------------|---------------------------|
|------------/15-------------15h17^-|-------------/17p15-15-15--|
|-----------------------------------|---------------------------|
|-----------------------------------|---------------------------|
|-----------------------------------|---------------------------|
|--0-0-0-----------0-0-0-0----------|---0-0-0-------------------|
   * * *           * * * *              * * *


|------------------------------------------------------------------------|
|------------------------------------------------------------------------|
|-----------/9-----------/10-----------/9---------/10------12-11/12/11---|
|------------x-------------x------------x-----------x-------x--x--x--x---|
|-----------/7------------/8-----------/7----------/8------10--9/10/-9---|
|------------------------------------------------------------------------|
|--0-0-0-------0-0-0--------0-0-0---------0-0-0--------------------------|
   * * *       * * *        * * *         * * * 


|----------------------------------------------------------------------|-----|
|---------------------------------------------------------------------*|-----|
|------------12------------14---------------15-----------------14------|-----|
|-------------x-------------x----------------x------------------x------|--2--|
|------------10------------12---------------13-----------------12------|--2--|
|---------------------------------------------------------------------*|--0--|
|--0-0-0---------0-0-0----------0-0-0------------0-0-0-----------------|--0--|
   * * *         * * *          * * *            * * *                    *
            
Submit corrections

comments powered by Disqus
↑ Back to top | Chimaira Tabs for Dead Inside. Lyrics for acoustic guitar and electric guitar. 1 Tablatures and chords are parodies/interpretations of the original songs. You may use it for private study, scholarship, research or language learning purposes only