>
 >
Dead Inside 1

Dead Inside 1 Guitar Tabs

Chimaira - Dead Inside 1 chords, tabs, tablatures, lyrics

Guitar lessons | Add/correct | Request | Top 50 tabs Artists:  A B C D E F G H I J K L M N O P Q R S T U V W X Y Z 0-9

Dead Inside 1 Guitar Tabs – Chimaira

CD, Sheet music, Poster

Do you like Dead Inside 1? Share with your friends now
Drum TabsTabsTabs v2Tabs v3
dead inside
seven string guitar tuned to drop a   AEADGBE


*=harmonic
/=slide
h=hammer on


||----------------------------------------------------------||
||---9------------------------------------------------------||
||----------------------------------------------------------||
||---6------------------------------------------------------||
||----------------------------------------------------------||
||--------3-3-3-3-3-----3-3-3-3-3---------------------------||
||--------3-3-3-3-3-----3-3-3-3-3------2--------------------||



||------------------------------------------------------------------------------||
||------------------------------------------------------------------------------||
||------------------------------------------------------------------------------||
||------------------------------------------------------------------------------||
||------------------------------------------------------------------------------||
||------------9*-----------------------9*---------------------------------------||
||--0h1p0---9*---1--0-----0h1p0-----9*----repeat then---1-1-1---3-3-3---4-------||


guitar 2 in background
||----------------------------------------------------------------------------------------||
||----------------------------------------------------------------------------------------||
||10/9---9--10/7---9--10/7---10/12--12--------------------10/9--9--10/9--9--12-12-13------||
||----------------------------------------------------------------------------------------||
||-8/7---7---8/7---7---8/7----8/10--10---repeat then-------8/7--7---8/7--7--10-10-13------||
||----------------------------------------------------------------------------------------||
||----------------------------------------------------------------------------------------||

I am dead to you

||------------------------------------------------------------------||
||------------------------------------------------------------------||
||------------------------------------------------------------------||
||------------------------------------------------------------------||
||-------------------------------------7^---------------------------||
||---0--0--0--0--0------0----5-----------------6----2----1----------||
||---0--0--0--0--0------0----------------0-----6----2----1----------||



||---------------------------------------------||
||---------------------------------------------||
||---------------------------------------------||
||---------------------------------------------||
||---------------------------------------------||
||---1-1-1-1-0-----1-1-1-1-0----1-1-0----------||
||---1-1-1-1-0-----1-1-1-1-0----1-1-0----------||



||------------------------------------------------------------------||
||------------------------------------------------------------------||
||------------15\-------------15h18---------------15-15-15-15-------||
||------------------------------------------------------------------||
||------------------------------------------------------------------||
||------------------------------------------------------------------||
||--0-0-0-----------0-0-0---------------0-0-0-----------------------||



||-----------------------------------------------------------------------------------||
||-----------------------------------------------------------------------------------||
||------------9------------10-------------9------------10------12-11/12/11-----------||
||-----------------------------------------------------------------------------------||
||------------7-------------8-------------7--------------8------10--9/10/9-----------||
||-----------------------------------------------------------------------------------||
||--0-0-0-------0-0-0--------0-0-0---------0-0-0-------------------------------------||



||-----------------------------------------------------------------------------------||
||-----------------------------------------------------------------------------------||
||------------12------------14---------------15------------------14------------------||
||-----------------------------------------------------------------------------------||
||------------10------------12---------------13-----------------12-------------------||
||-----------------------------------------------------------------------------------||
||--0-0-0---------0-0-0----------0-0-0------------0-0-0------------------------------||





Comments


Popular Chimaira tabs & chords
Painting The White To Grey Bass Tabs
Pictures In The Gold Room Bass Tabs
Secrets Of The Dead Bass Tabs
Crawl Tabs
Down Again - Piano Intro Tabs
Down Again 2 Tabs
Raining Blood Tabs
Secrets Of The Dead Tabs
Stigmurder Tabs
The Dehumanizing Process 1 Tabs


Song lyrics



↑ Back to top | Tablatures and chords are parodies/interpretations of the original songs. You may use it for private study, scholarship, research or language learning purposes only
© 2014 AZChords.com Contact us | Privacy policy | DMCA | Add/correct tabs | Request tabs | Top 50 tabs