» » »

Chimaira, Dead Inside Tabs (ver.1)

Artists:  A B C D E F G H I J K L M N O P Q R S T U V W X Y Z # 

Dead Inside Tabs (ver.1)

Chimaira Tabs
 Rating:
4/5 (8 votes)
Dead Inside lessons Tabs too difficult? Try these video lessons and learn fast
1
                Seven String guitar in Drop A tuning(AEADGBe)

Everyone thinks that Chimaira tunes to Drop G. . they do for two songs on the album. . . 
Live they play in A . I asked Jim (LaMarca,bass) before a show earlier this year.

(#)= natural harmonic
h= hammer on
p=pull off
*=artificial harmonic

intro:samples

guitar intro

|----------------------------------------------------------|
|--9-------------------------------------------------------|
|----------------------------------------------------------|
|--6-------------------------------------------------------|
|----------------------------------------------------------|
|------3-3-3-3-3--------3-3-3-3-3--------------------------|
|------3-3-3-3-3--------3-3-3-3-3--2-----------------------|
              "I'm so alone"
then more sampling

this is the chorus too
|--------------------------------|
|--------------------------------|
|--------------------------------|
|--------------------------------|
|--------------------------------|
|---------(9)---------------(9)--|
|0h1p0-(9)----1-0--0h1p0-(9)-----|2Xthen A|1-1-1--3-3-3--4-|


guitar 2 fools with E,F, and G octave chords on the high A
|----------------------------------------------------------|
|----------------------------------------------------------|
|----------------------------------------------------------|
|----------------------------------------------------------|
|-------------------------7*-------------------------------|
|0--0--0--0-0------0--5-------6--2--1----------------------|
|0--0--0--0-0------0----------6--2--1----------------------|
"I am Dead to you"

I can't decipher the melody part during the singing part

|--------------------------------------|
|--------------------------------------|
|--------------------------------------|
|--------------------------------------|
|--------------------------------------|
|-1-1-1-1-0------1-1-1-1-0-------1-1-0-|
|-1-1-1-1-0------1-1-1-1-0-------1-1-0-|
another part.

|----------------------------------------------------------|
|----------------------------------------------------------|
|--------15--------15/18--------------15-15-15-15----------|
|----------------------------------------------------------|
|----------------------------------------------------------|
|----------------------------------------------------------|
|0-0-0------0-0-0-----------0-0-0--------------------------|


|----------------------------------------------------------|
|----------------------------------------------------------|
|------9---------10--------9---------10---12--11/12/11-----|
|----------------------------------------------------------|
|------7---------8---------7---------8----10---9/10/9------|
|----------------------------------------------------------|
|0-0-0-----0-0-0-----0-0-0-----0-0-0-----------------------|
            
Submit corrections

comments powered by Disqus
↑ Back to top | Chimaira Tabs for Dead Inside. Lyrics for acoustic guitar and electric guitar. 1 Tablatures and chords are parodies/interpretations of the original songs. You may use it for private study, scholarship, research or language learning purposes only