>
 >
Blooddrunk 3

Blooddrunk 3 Guitar Tabs

Children Of Bodom - Blooddrunk 3 chords, tabs, tablatures, lyrics

Guitar lessons | Add/correct | Request | Top 50 tabs Artists:  A B C D E F G H I J K L M N O P Q R S T U V W X Y Z 0-9

Blooddrunk 3 Guitar Tabs – Children Of Bodom

CD, Sheet music, Poster

Do you like Blooddrunk 3? Share with your friends now
Bass TabsBass Tabs v2TabsTabs v2Tabs v3
Children Of Bodom


Holy Fuck! New bodom album! 
I heard this song and Just had to tab the solo!.
This is pretty easy, as its done on mostly one part of the fretboard.
Rock on! :]


                 Tremolo Bar Dive
                  This harmonic            Dive        Dive
D|------------------------------------------------------------------|
A|--------------------------------------------------10--------------|
F|-------x--------------------------9------0\----12b(14)--12\----|
C|-----x---11-----!----Tremolo-Pick----12b(14)--\---------------\---|
G|---x-----14b(16)!-----This harmonic------------\---------------\--|
C|-x----------------------------------------------\---------------\-|
   ^ Rake


                  1/4 step bend        PM PM
-----------------------/19~b----19\17--16--0--|
-------------/19------------------------------|
--/16~~(16)\------18\-------------------------|
----------------------------------------------|
----------------------------------------------|
----------------------------------------------|

--/21-19h-21p-19-17-----19s--17--19-17h-19p-17--------17\15--|
--------------------17----------------------------17---------|
-----------------------------------------------19------------|
-------------------------------------------------------------|
-------------------------------------------------------------|
-------------------------------------------------------------|
   
-------------/15-----------------|
--17b(19)~~~\-----17--14--17\----|Hold,
---------------------------------|       Get Readyyyyyyyyyyy.
---------------------------------|
---------------------------------|
---------------------------------|

Scale! :]
--------------------------------------21----19h21-22-19-21-22h24--21h22/24-|
-----------19-------19-21h22-19h21-22----22--------------------------------|
-/18h20-21----20h21--------------------------------------------------------|

  Harmonic?   release bend
-[20]b[24]---24rb------x-x-21---------/19--|
-------------------------------22----------|
-----------------------------------21\-----|
-------------------------------------------|
-------------------------------------------|
-------------------------------------------|
                            ^All In one upstroke


Harmony:
I didnt figure out the second part yet. but it sounds like basic 3rd harmonies.

--21------22-----/24--21--19------21------22--19--|
------22------22--------------21------21----------|
--------------------------------------------------|
--------------------------------------------------|
--------------------------------------------------|
--------------------------------------------------|

----------19------21---------------------------------------------|
--22--19------19------22--19------21------22--19p17-x-17-x-x-17\-|
------------------------------19------19-------------------------|

That's it for the Solo!





Comments


Popular Children Of Bodom tabs & chords
Children Of Decadence Bass Tabs
Banned From Heaven 2 Tabs
Deadnight Warrior Tabs
Hellion 1 Tabs
One Day You Will Cry Intro Tabs
One Day You Will Cry Intro 1 Tabs
Passage To The Reaper Tabs
Reap And Roll Excercise 2 Tabs
Reap And Roll Excercise 4 Tabs
Reap And Roll Excercise 5 Tabs


Song lyrics



↑ Back to top | Tablatures and chords are parodies/interpretations of the original songs. You may use it for private study, scholarship, research or language learning purposes only
© 2014 AZChords.com Contact us | Privacy policy | DMCA | Add/correct tabs | Request tabs | Top 50 tabs