» » »

Children Of Bodom, Blooddrunk Tabs (ver.3)

Artists:  A B C D E F G H I J K L M N O P Q R S T U V W X Y Z # 

Blooddrunk Tabs (ver.3)

Children Of Bodom Tabs
 Rating:
4/5 (4 votes)
Blooddrunk lessons Tabs too difficult? Try these video lessons and learn fast
1
                Guitar 1: Alexi Laiho
Guitar 2: Roope Latvala

Intro

Gtr 1
D|------------------------------------------|---13-10--12--15-13----12----13-|
A|------------------------------------------|--------10--13-----15----13-----|
F|-------8-8-8------------------------------|---------------------14---------|
C|-------6-6-6------------------------------|-12------------------------12---|
G|-5-5-5-------8-----8-------3----3-3--3--3-|--------------------------------|
C|-5-5-5---------0-0--0-0----3----3-2--2--2-|--------------------------------|

Gtr 2
D|------------------------------------------|-----------------------------------|
A|------------------------------------------|-----------------------------------|
F|------------------------------------------|-----------------------------------|
C|-------6-6-6----------------------5-------|-7---7---7---555-7---7-------666---|
G|-5-5-5-6-6-6-5----5--------3----3-3-------|-5---5---5---333-5---5----555666---|
C|-5-5-5---------0-0--0-0----3----3-2-------|--000-000-000-----000-000-555------|

Gtr 1
D|-----12--------------------13-10--12--15-13----12--10--12--13-10-8-10-12-8-|
A|13-10--13-15-13-----------------10--13-----15----13--13--13-------8--8-----|
F|-----------------12-14-15--------------------14----------------------------|
C|---------------15--------12------------------------------------------------|
G|---------------------------------------------------------------------------|
C|---------------------------------------------------------------------------|

Gtr 2
D|--------------------------------------------------------------------------|
A|--------------------------------------------------------------------------|
F|--------------------------------------------------------------------------|
C|--------------------------------------------------------------------------|
G|--------------------------------------------------------------------------|
C|--------------------------------------------------------------------------|

Gtr 1
D|--------------------------------------------------------------------------|
A|------------------------------7---10-7------------------------------------|
F|-------------------------------7p6----------------------------------------|
C|-----------------7-----------------------------------7--------------888---|
G|-------3---4--8-5-6-------2-3----------------3-4--8-5-6-------2-3-6-666---|
C|-0-000-3-0-4-0------0-000-2-3----------0-000-3-4-0------0-000-2-3-6-------|

Gtr 2
D|--------------------------------------------------------------------------|
A|------------------------------7---10-7------------------------------------|
F|-------------------------------7p6----------------------------------------|
C|-----------------7-----------------------------------7--------------888---|
G|-------3---4--8-5-6-------2-3----------------3-4--8-5-6-------2-3-6-666---|
C|-0-000-3-0-4-0------0-000-2-3----------0-000-3-4-0------0-000-2-3-6-------|

Gtr 1
D|---------------------------------------------------------------------------|
A|------------------------------7---10-7-------------------------------------|
F|-------------------------------7p6-----------------------------------------|
C|-----------------7-----------------------------------7---------------------|
G|-------3---4--8-5-6-------2-3----------------3-4--8-5-6-------2-3-6-6ph~~~-|
C|-0-000-3-0-4-0------0-000-2-3----------0-000-3-4-0------0-000-2-3-6--------|

Gtr 2
D|--------------------------------------------------------------------------|
A|------------------------------7---10-7------------------------------------|
F|-------------------------------7p6----------------------------------------|
C|-----------------7-----------------------------------7--------------888---|
G|-------3---4--8-5-6-------2-3----------------3-4--8-5-6-------2-3-6-666---|
C|-0-000-3-0-4-0------0-000-2-3----------0-000-3-4-0------0-000-2-3-6-------|
            
Submit corrections

comments powered by Disqus
↑ Back to top | Children Of Bodom Tabs for Blooddrunk. Lyrics for acoustic guitar and electric guitar. 1 Tablatures and chords are parodies/interpretations of the original songs. You may use it for private study, scholarship, research or language learning purposes only