>
 >
Blooddrunk

Blooddrunk Bass Tabs

Children Of Bodom - Blooddrunk chords, tabs, tablatures, lyrics

Guitar lessons | Add/correct | Request | Top 50 tabs Artists:  A B C D E F G H I J K L M N O P Q R S T U V W X Y Z 0-9

Blooddrunk Bass Tabs – Children Of Bodom

CD, Sheet music, Poster

Do you like Blooddrunk? Share with your friends now
Bass TabsBass Tabs v2TabsTabs v2Tabs v3


                                                                            
F||------------------|----------------------------|----------------------------|
C||------------------|----------------------------|----------------------------|
G||------------------|-------------------6--6--6--|--5--------5----------------|
C||------------------|----------5--5--5-----------|-----0--0-----0--0----------|


                                                            
--------------------|--------------------------------------|
--------------------|--------------------------------------|
--------------------|--5--------5--------5--------3--3--3--|
--3--------2--------|-----0--0-----0--0-----0--0-----------|


                                                                              
--------------------------------------|--------------------------------------|
--------------------------------------|--------------------------------------|
--5--------5-----------------6--6--6--|--5--------5--------5--------3--3--3--|
-----0--0-----0--0--5--5--5-----------|-----0--0-----0--0-----0--0-----------|


                                                            
--------------------|--------------------------------------|
--------------------|--------------------------------------|
--------------------|--5--------5--------5--------3--3--3--|
--3--------2--------|-----0--0-----0--0-----0--0-----------|


                                                                              
--------------------------------------|--------------------------------------|
--------------------------------------|--------------------------------------|
--5--------5-----------------6--6--6--|--5--------5--------5--------3--3--3--|
-----0--0-----0--0--5--5--5-----------|-----0--0-----0--0-----0--0-----------|


                                                   
--------------------|-----------------------------|
--------------------|-----------------------------|
--------------------|-----------------------------|
--3--------2--------|--0--0-0-0--3--0--4----------|


                                                            
-----------------------------|-----------------------------|
-----------------------------|-----------------------------|
-----------------------------|-----------------------------|
--0--0-0-0--2--0--3----------|--0--0-0-0--4--0--3----------|


                                                                      
---------------------------------------|-----------------------------|
---------------------------------------|-----------------------------|
------------------------------6--6--6--|-----------------------------|
--0--0-0-0--2--0--3--0--6--0-----------|--0--0-0-0--3--0--4----------|


                                                            
-----------------------------|-----------------------------|
-----------------------------|-----------------------------|
-----------------------------|-----------------------------|
--0--0-0-0--2--0--3----------|--0--0-0-0--4--0--3----------|


                                                                                
---------------------------------------|---------------------------------------|
---------------------------------------|---------------------------------7-----|
------------------------------6--6--6--|---------------------------8--5-----6--|
--0--0-0-0--2--0--3--0--6--0-----------|--0--0-0-0--3--0--4--0--0--------------|


                                                                                
---------------------------------------|---------------------------------------|
---------------------------------------|---------------------------------7-----|
------------------------5--------8--5--|---------------------------8--5-----6--|
--0--0-0-0--2--0--3--0-----7--6--------|--0--0-0-0--4--0--3--0--0--------------|


                                                                                
---------------------------------------|---------------------------------------|
---------------------------------------|---------------------------------7-----|
------------------------------6--6--6--|---------------------------8--5-----6--|
--0--0-0-0--2--0--3--0--6--0-----------|--0--0-0-0--3--0--4--0--0--------------|


                                                                                
---------------------------------------|---------------------------------------|
---------------------------------------|---------------------------------7-----|
------------------------5--------8--5--|---------------------------8--5-----6--|
--0--0-0-0--2--0--3--0-----7--6--------|--0--0-0-0--4--0--3--0--0--------------|


                                                                               
---------------------------------------|--------------------------------------|
---------------------------------------|--------------------------------------|
------------------------------6--6--6--|--------------------------------------|
--0--0-0-0--2--0--3--0--6--0-----------|--2--x--2--x--0h-2--2--2--2--2--2--2--|


                                                                              
--------------------------------------|--------------------------------------|
--------------------------------------|--------------------------------------|
--------------------------------------|--------------------------------------|
--2--x--2--x--0h-2--2--2--2--2--2--2--|--2--x--2--x--0h-2--2--2--2--2--4--5--|


                                       
--------------------------------------|
--------------------------------------|
--------------------------------------|
--2--x--2--x--0h-2--2--2--2--2--2--2--|


                                            
-------------------------------------------|
-------------------------------------------|
-------------------------------------------|
--2--x--2--x--0h-2--2--2-2-2-2-2-2-2-2-2-2-|


                                                                              
--------------------------------------|--------------------------------------|
--------------------------------------|--------------------------------------|
--------------------------------------|--------------------------------------|
--2--x--2--x--0h-2--2--2--2--2--5--4--|--2--x--2--x--0h-2--2--2--2--2--4--5--|


                                                   
--------------------------------------|-----------|
--------------------------------------|-----------|
--------------------------------------|--1--------|
--2--x--2--x--0h-2--2--0--2--2--4--5--|-----------|


                                                                              
--------------------------------------|--------------------------------------|
--------------------------------------|--------------------------------------|
--5--------5--------5--------3--3--3--|--5--------5-----------------6--6--6--|
-----0--0-----0--0-----0--0-----------|-----0--0-----0--0--5--5--5-----------|


                                                            
--------------------------------------|--------------------|
--------------------------------------|--------------------|
--5--------5--------5--------3--3--3--|--------------------|
-----0--0-----0--0-----0--0-----------|--3--------2--------|


                                                                              
--------------------------------------|--------------------------------------|
--------------------------------------|--------------------------------------|
--5--------5--------5--------3--3--3--|--5--------5-----------------6--6--6--|
-----0--0-----0--0-----0--0-----------|-----0--0-----0--0--5--5--5-----------|


                                                            
--------------------------------------|--------------------|
--------------------------------------|--------------------|
--5--------5--------5--------3--3--3--|--------------------|
-----0--0-----0--0-----0--0-----------|--3--------2--------|


                                                                                
---------------------------------------|---------------------------------------|
---------------------------------7-----|---------------------------------------|
---------------------------8--5-----6--|------------------------5--------8--5--|
--0--0-0-0--3--0--4--0--0--------------|--0--0-0-0--2--0--3--0-----7--6--------|


                                                                                
---------------------------------------|---------------------------------------|
---------------------------------7-----|---------------------------------------|
---------------------------8--5-----6--|------------------------------6--6--6--|
--0--0-0-0--4--0--3--0--0--------------|--0--0-0-0--2--0--3--0--6--0-----------|


                                                                                
---------------------------------------|---------------------------------------|
---------------------------------7-----|---------------------------------------|
---------------------------8--5-----6--|------------------------5--------8--5--|
--0--0-0-0--3--0--4--0--0--------------|--0--0-0-0--2--0--3--0-----7--6--------|


                                                                  
---------------------------------------|-------------------------|
---------------------------------7-----|-------------------------|
---------------------------8--5-----6--|-----5--------8-----5/---|
--0--0-0-0--4--0--3--0--0--------------|--0-----7--6-----0-------|


                                                                            
-------------------------------------|-------------------------------------|
-------------------------------------|-------------------------------------|
-------------------------------------|-------------------------------------|
--4-4-4-4-4-4-2----4------4--2----5--|--4-4-4-4-4-4-2----4------4--0----5--|


                                                              
--------------------------------------|----------------------|
--------------------------------------|----------------------|
--------------------------------------|-------4--------------|
--4--4--2--7--2--2--4--2--2--7--2--2--|--4---------7----5----|


                                                                            
-------------------------------------|-------------------------------------|
-------------------------------------|-------------------------------------|
-------------------------------------|-------------------------------------|
--4-4-4-4-4-4-2----4------4--2----5--|--4-4-4-4-4-4-2----4------4--0----5--|


                                                              
--------------------------------------|----------------------|
--------------------------------------|----------------------|
--------------------------------------|-------4--------------|
--4--4--2--7--2--2--4--2--2--7--2--2--|--4---------7----5----|


                                                    
--------------------------|------------------------|
--------------------------|------------------------|
-------4------------------|------------------------|
--4---------7----0--0--0--|--2------------2--5--5--|


                                                                       
-----------------------------|-------------------|--------------------|
-----------------------------|-------------------|--------------------|
-----------0--0--0-----------|-------------------|--------------------|
--2-----------------3--3--3--|--2----------------|--5--------4--------|


                                                                           
------------------------|-----------------------------|-------------------|
------------------------|-----------------------------|-------------------|
------------------------|-----------0--0--0-----------|-------------------|
--2------------2--5--5--|--2-----------------3--3--3--|--2----------------|


                                                                               
--------------------|-------------------|------------------|------------------|
--------------------|-------------------|------------------|------------------|
--------------------|-------------------|------------------|------------------|
--5--------4--------|--4----------------|------------------|------------------|


                                       
------------------|-------------------|
------------------|-------------------|
------------------|-------------------|
------------------|--------------4/---|


                                            
-------------------------------------------|
-------------------------------------------|
-------------------------------------------|
--4--4-4-4-4-4--4--4--4--4-4-4-4-4-4--4-4--|


                                              
---------------------------------------------|
-----------------------------------2-----2-4-|
-------------------------------2-4---4-2-----|
--4--4-4-4-4-4--4--4--4--4-6-7---------------|


                                            
-------------------------------------------|
-------------------------------------------|
-------------------------------------------|
--4--4-4-4-4-4--4--4--4--4-4-4-4-4-4--4-4--|


                                              
---------------------------------------------|
-----------------------------------2-----2-4-|
-------------------------------2-4---4-2-----|
--4--4-4-4-4-4--4--4--4--4-6-7---------------|


                                                                              
-------------------------------------|---------------------------------------|
-------------------------------------|---------------------------------------|
-------------------------------------|---------------------------------------|
--6----6--6--6--9--6--6--6--6--6--6--|--9--9--9--9--9--11--9--9--9--9--9--9--|


                                                                               
--------------------------------------|---------------------------------------|
--------------------------------------|---------------------------------------|
--------------------------------------|---------------------------------------|
--6--6--6--6--6--9--6--6--6--6--6--6--|--9--9--9--9--9--11--7--7--7--7--7--9--|


                                                                               
--------------------------------------|---------------------------------------|
--------------------------------------|---------------------------------------|
--------------------------------------|---------------------------------------|
--6--6--6--6--6--9--6--6--6--6--6--6--|--9--9--9--9--9--11--9--9--9--9--9--9--|


                                                                                
--------------------------------------|--------------------|-------------------|
--------------------------------------|--------------------|-------------------|
--------------------------------------|--------------------|-------------------|
--6--6--6--6--6--9--6--6--6--6--6--6--|--9--------2--------|--4----------------|


                                                                        
--------------------|-------------------|------------------------------|
--------------------|-------------------|------------------------------|
--------------------|-------------------|------------------------------|
--7--------0--------|--4----------------|--7----7--7--7--5----5--5--5--|


                                                                  
-------------------|-------------------------|-------------------|
-------------------|-------------------------|-------------------|
-------------------|-------------------------|-------------------|
--4----------------|--7--------0----0--0--0--|--4----------------|


                                          
--------------------|--------------------|
--------------------|--------------------|
--------------------|--------------------|
--7--------2--------|--4--------0--------|


                                                                              
--------------------------------------|--------------------------------------|
--------------------------------------|--------------------------------------|
--------------------------------------|--------------------------------------|
--2--x--2--x--2--x--2--2--2--2--2--2--|--2--x--2--x--0h-2--2--2--2--2--2--2--|


                                                                              
--------------------------------------|--------------------------------------|
--------------------------------------|--------------------------------------|
--------------------------------------|--------------------------------------|
--2--x--2--x--0h-2--2--2--2--2--4--5--|--2--x--2--x--0h-2--2--2--2--2--2--2--|


                                            
-------------------------------------------|
-------------------------------------------|
-------------------------------------------|
--2--x--2--x--0h-2--2--2-2-2-2-2-2-2-2-2-2-|


                                                                              
--------------------------------------|--------------------------------------|
--------------------------------------|--------------------------------------|
--------------------------------------|--------------------------------------|
--2--x--2--x--0h-2--2--2--2--2--5--4--|--2--x--2--x--0h-2--2--2--2--2--4--5--|


                                                                             
--------------------------------------|-------------------------------------|
--------------------------------------|-------------------------------------|
--------------------------------------|-------------------------------------|
--2--x--2--x--0h-2--2--0--2--2--4--5--|--4-4-4-4-4-4-2----4------4--2----5--|


                                                                             
-------------------------------------|--------------------------------------|
-------------------------------------|--------------------------------------|
-------------------------------------|--------------------------------------|
--4-4-4-4-4-4-2----4------4--0----5--|--4--4--2--7--2--2--4--2--2--7--2--2--|


                                                             
----------------------|-------------------------------------|
----------------------|-------------------------------------|
-------4--------------|-------------------------------------|
--4---------7----5----|--4-4-4-4-4-4-2----4------4--2----5--|


                                                                             
-------------------------------------|--------------------------------------|
-------------------------------------|--------------------------------------|
-------------------------------------|--------------------------------------|
--4-4-4-4-4-4-2----4------4--0----5--|--4--4--2--7--2--2--4--2--2--7--2--2--|


                                                             
----------------------|-------------------------------------|
----------------------|-------------------------------------|
-------4--------------|-------------------------------------|
--4---------7----5----|--4-4-4-4-4-4-2----4------4--2----5--|


                                                                             
-------------------------------------|--------------------------------------|
-------------------------------------|--------------------------------------|
-------------------------------------|--------------------------------------|
--4-4-4-4-4-4-2----4------4--0----5--|--4--4--2--7--2--2--4--2--2--7--2--2--|


                                                             
----------------------|-------------------------------------|
----------------------|-------------------------------------|
-------4--------------|-------------------------------------|
--4---------7----5----|--4-4-4-4-4-4-2----4------4--2----5--|
                                                                         
-------------------------------------|--------------------------------------|
-------------------------------------|--------------------------------------|
-------------------------------------|--------------------------------------|
--4-4-4-4-4-4-2----4------4--0----5--|--4--4--2--7--2--2--4--2--2--7--2--2--|
                                                 
----------------------|--------------------------|
----------------------|--------------------------|
-------4--------------|-------4------------------|
--4---------7----5----|--4---------7----0--0--0--|
                                                         
--------------------------------------|------------------||
--------------------------------------|------------------||
--------------------------------------|------------------||
--4-4-4-4-4-4-2----4------4--2--4--4/-|------------------||





Comments


Popular Children Of Bodom tabs & chords
Mask Of Sanity Bass Tabs
Are You Dead Yet 3 Tabs
Bastards Of Bodom 3 Tabs
Blooddrunk Tabs
Dont Stop At The Top Tabs
Four Seasons - Summer 3 Tabs
Lake Bodom Tabs
Living Dead Beat 5 Tabs
Silent Night Bodom Night Tabs
Trashed Lost And Strungout Intro Tabs


Song lyrics



↑ Back to top | Tablatures and chords are parodies/interpretations of the original songs. You may use it for private study, scholarship, research or language learning purposes only
© 2014 AZChords.com Contact us | Privacy policy | DMCA | Add/correct tabs | Request tabs | Top 50 tabs