>
 >
Are You Dead Yet? 1

Are You Dead Yet? 1 Guitar Tabs

Children Of Bodom - Are You Dead Yet? 1 chords, tabs, tablatures, lyrics

Guitar lessons | Add/correct | Request | Top 50 tabs Artists:  A B C D E F G H I J K L M N O P Q R S T U V W X Y Z 0-9

Are You Dead Yet? 1 Guitar Tabs – Children Of Bodom

CD, Sheet music, Poster

Do you like Are You Dead Yet? 1? Share with your friends now
Bass TabsDrum TabsTabsTabs v2Tabs v3
Band:  Children of Bodom


.  - palm mute           /  - slide up to
\  - slide down to       ~  - vibrato
h  - hammer on           b  - Bend
p  - pull off            Suffixes for bend
t  - tap                 f  - full bend    h - half bend
ph - pinched harmonic    q  - quarter bend t - tap bend
*  - see comment         ^  - Hold bend    r release bend
x  - Stuccatto           ~  - vibrato bend
,  - slight palm mute    () - ghost note, sustained note
"  - tremolo note        <> - Trill

Tuning: Drop C (CGCFAd)

Riff A
|--------------------------------------------------------------|
|--------------------------------------------------------------|
|--------------------------------------------------------------|
|--0-0---------------------------------------8-------8-------8-|
|--0-0--5--5-6-5------5---5-6b-------5---5-6-8-6-5-6-8-6-5-6-8-|
|--0-0----0-------0-0---0-------0-0----0-----------------------|
   . .    .       . .   .       . .    .

Riff B
|--------------------------------|
|--------------------------------|
|--------------------------------|
|--------------------------------|
|-------5--5-6-5------5---5-6ph--|
|--0-0----0-------0-0---0--------|
   . .    .       . .   .

Riff C
|----------------------------------------------------|
|----------------------------------------------------|
|---------------------------2------------------------|
|-------------------3-----2-----5-------------3--5---|
|-----5---5-6-----1---1-0-----3-----1--0-1--0-1--3---|
|-0-0---0-----0-2-------------------1--0-1--0--------|
  . .   .                           .  . .  .

Riff D
|--------------------------------------------------------------|
|--------------------------------------------------------------|
|--------------------------------------------------------------|
|--------------------------------------------------------------|
|-------5--5-6-5------5---5-6b-------5---5-6-8-6-5-6-8-6-5-6-8-|
|--0-0----0-------0-0---0-------0-0----0-----------------------|
   . .    .       . .   .       . .    .

Riff E
|--------------------------------|
|--------------------------------|
|--------------------------------|
|--------------------------------|
|-------5--5-6-5------5---5-8ph--|
|--0-0----0-------0-0---0--------|
   . .    .       . .   .

Riff F
|----------------------------------|
|----------------------------------|
|---------------------------2------|
|-------------------3-----2-----5--|
|-----5---5-6-----1---1-0-----3----|
|-0-0---0-----0-2------------------|
  . .   .

Riff G
|---------------------------------------------------------------|
|---------------------------------------------------------------|
|---------------------------------------------------------------|
|-----7---7-8-7------7---7-8b------7-------7-------7-------7----|
|-----5---5-6-5------5---5-6b------5---7-8---8-7-8---8-7-8---8--|
|-0-0---0--------0-0---0-------0-0---0--------------------------|
  . .   .        . .   .       . .   .

Riff H
|-------------------------------------------------------------|
|-------------------------------------------------------------|
|-------------------------------------------------------------|
|-----7---7-8-7------7---7-8b------7---8----------------------|
|-----5---5-6-5------5---5-6b------5---6----------8-----8-----|
|-0-0---0--------0-0---0-------0-0---0----0-5-7-8---7-8---8-7-|
  . .   .        . .   .       . .   .

Riff I
|--------13---------13--------13---13---13--|
|-----17---------17---------17--------17----|
|--------------------------------17---------|
|-------------------------------------------|
|-0-0-------0-0--------0-0------------------|
|-0-0-------0-0--------0-0------------------|
  . .       . .        . .

Riff I(contd)
|--------13---------13---------13------------|
|-----17---------17---------17---13----13-13-|
|-----------------------------------12-------|
|--------------------------------------------|
|-0-0-------0-0--------0-0-------------------|
|-0-0-------0-0--------0-0-------------------|
  . .       . .        . .

Riff J (over the top of Riff I)
|--------------------------|
|--------------------------|
|--------------------------|
|-0--5--7--5---0--3--6--1--|
|-0--3--5--3---0--3--6--1--|
|-0------------0--3--6--1--|

Riff K (Alexi and Roope's part put together)
|---------------------------------------------------------------------------|
|---------------------------------------------------------------------------|
|-Alexi----Alexi-----Alexi--------Alexi---------Alexi------Alexi------Alexi-|
|-\--/-----\---/-----\---/-/-----------------\---/-\--10-10-/-\--10-10-/-\--|
|-0-0--0-0--0-0--0-0--0-0--0-0-0--0-0-0--0-0-0---8-8--8--8--8-8--8--8--8-8--|
|-0-0--0-0--0-0--0-0--0-0--0-0-0--0-0-0--0-0-0---8-8--8--8--8-8--8--8--8-8--|
  . .  . .  . .  . .  . .  . . .  . . .  . . .   , ,  ,  ,  , ,  ,  ,  , ,
       / \       /  \      \      Roope      /        \   /      \   /
      Roope     Roope                                 Roope      Roope


Riff L
|------------------------------------17^----------r-|
|---------------------------15----------------------|
|------------------14-------------------------------|
|-7^--------r12-15----12-15----12-15----------------|
|---------------------------------------------------|
|---------------------------------------------------|


Riff M
|---------------------------------------------------------------------------|
|---------------------------------------------------------------------------|
|---------------------------------------------------------------------------|
|---------------------------------------------------------------------3--5--|
|-1--1-1-1--1-----3--3-3-3--3----5--5-5-5--5----7--7-7-7--7---1-0-1-0-1--3--|
|-------------------------------------------------------------1-0-1-0-------|
  .  . . .  .     .  . . .  .    .  . . .  .    .  . . .  .   . . . .

Riff N
|----------------------------------------------------|
|----------------------------------------------------|
|---------------------------------------7ph----------|
|----------------------------------------------------|
|-----5---5-6-5------5---5-6ph-----5--------5-7-8-10-|
|-0-0---0--------0-0---0-------0-0---0------5-7-8-10-|
  . .   .        . .   .       . .   .

Riff O  (GTR 1)
|---------------------------------------------------------------------------|
|-----10----10--10-----13---------------11---11-11--------------8-----------|
|-7-7---7-7---7---10-10--10-----12---8-8--8-8--8------10----------7~--------|
|--------------------------10-10--10---------------8-8---8----8-------------|
|----------------------------------------------------------10---------------|
|---------------------------------------------------------------------------|

Riff O  (GTR 2)                                                     \
|------------------------------------------------------------------| \
|------------------------------------------------------------------|  \
|------------------------------------------------------------------|   \
|1212-15-1212-15-12-15-1515-19-15-1414-17-14-1313-17-1313-17-13-17-|   |
|------------------------------------------------------------------|   |
|------------------------------------------------------------------|   |
                                                                       |
|-----------------------------|                                        |
|-----------------------------|                                        |
|---------------------12------|                                        |
|------------------------12~--|                                        /
|--1313-17-13---10-13---------|                                       /
|-----------------------------|                                      /
____________________________________________________________________/

Riff P
|---------------------------------------------------------------------------|
|-----------------------------10------------------------------------8-------|
|7-10-9-10-7-10-9-10-7-10-9-10---10-9-10-7-10-9-10-7-10-9-10-7-10-9--10-9-10|
|---------------------------------------------------------------------------|
|---------------------------------------------------------------------------|
|---------------------------------------------------------------------------|

Riff P(1) - Played over the top of Riff P
|-------------------| |------------|
|-------------------| |------------|
|-----2-------------| |------------|
|-1---2---0---3-5---| |--3-3--3-5--|
|-1---0---0---3-3---| |--3-3--3-3--|
|-1-------0---3-----| |--3-3--3----|
                         .    .
Riff Q
|--------13--------13-|
|-----17--------17----|
|---------------------|
|---------------------|
|---------------------|
|-0-0-------0-0-------|
  . .       . .

Riff R
|-------------------------------10-|
|------------------------6b-6b-----|
|----------------5b-5b-------------|
|---------3b-3b--------------------|
|-1b-1b----------------------------|
|----------------------------------|


Riff S
|------------------------------|
|------------------------------|
|------------------------------|
|--------------------------3-5-|
|-3-0-1-0-3-0-1-0-3-0-1-0--1-3-|
|-3-0-1-0-3-0-1-0-3-0-1-0------|
  . . . . . . . . . . . .

Uh oh...*****solo*****
|-12-------15---14------17--------20----20---------------|
|-15^~-----18^--17^-----20^~~-----23^---23^--------------|
|--------------------------------------------------------|
|--------------------------------------------------------|
|--------------------------------------------------------|
|--------------------------------------------------------|

|-------19-------19ph-/17--------19-22--------22ph-/21-------21------|
|----------17-17----------15-17--------20-20-----------19-19---------|
|--------------------------------------------------------------------|
|--------------------------------------------------------------------|
|--------------------------------------------------------------------|
|--------------------------------------------------------------------|


 _________________________________VERYFAST___________________________________

|-20-19-17-20-19-17--------------17-----------------------------------------|
|------------------20-19-17-19-20--20-19-17---------------------------------|
|------------------------------------------19-20-17-19-20-19-17-----19-17---|
|--------------------------------------------------------------19-17--------|
|---------------------------------------------------------------------------|
|---------------------------------------------------------------------------|


  ___VERY FAST______
 |                  |
|---------------------17^-------r17^-------r15------22^------------r-|
|---------------------18^-------r18^-------r---17--------------------|
|----------------17--------------------------------------------------|
|-19-17----17-19-----------------------------------------------------|
|-------19-----------------------------------------------------------|
|--------------------------------------------------------------------|


|-17-13-------20-17-------17-13---------17-12-------------------------------|
|-------15----------18----------15------------13-----14^---r14^------r------|
|----------14----------19----------14------------14--14^---r14^------r12----|
|------------------------------------------------------------------------14-|
|---------------------------------------------------------------------------|
|---------------------------------------------------------------------------|


|---------------------------------------------------------------------------|
|-14^---r14^---r----------------------------------------13b--------13b--15b-|
|-14^---r14^---r-12----14-12-----------14b----12b---14b--------14b----------|
|-------------------14-------14---------------------------------------------|
|---------------------------------------------------------------------------|
|---------------------------------------------------------------------------|


|------------12b-------12b--15b----------|
|-13b----15-------15---------------------|
|----------------------------------------|
|----------------------------------------|
|----------------------------------------|
|----------------------------------------|

Riff t (Backing To Solo)
|-------------------------------------------------------------------|
|-------------------------------------------------------------------|
|-------------------------------------------------------------------|
|------------------------------------------------------------3-3-3--|
|------------------------------------------------------------3-3-3--|
|--2-2-5-2-2-5-2-5-5-5-8-5-4-4-7-4-3-3-7-3-3-7-3-7-0-0-3-0-0-3-3-3--|

riff U
|---------------|
|---------------|
|---------------|
|---------------|
|-----6-----6b--|
|-0-0---0-0-----|
  . .   . .

Riff V
|---------------------------------------------------------------|
|---------------------------------------------------------------|
|---------------------------------------------------------------|
|-----7---7-8-7------7---7-8b------7--------8-------8-------8---|
|-----5---5-6-5------5---5-6b------5----5-6-8-6-5-6-8-6-5-6-8-6-|
|-0-0---0--------0-0---0-------0-0---0--------------------------|
  . .   .        . .   .       . .   .

Riff W
|---------------------------------------------------------------|
|---------------------------------------------------------------|
|---------------------------------------------------------------|
|-----7---7-8-7------7---7---------7--------8-------8-------8---|
|-----5---5-6-5------5---5-6ph-----5----5-6-8-6-5-6-8-6-5-6-8-6-|
|-0-0---0--------0-0---0-------0-0---0--------------------------|
  . .   .        . .   .       . .   .


riff order
Riff A
Riff B
Riff C
Riff D
Riff E
Riff F
Riff G
Riff H
Riff I&J
Riff K
Riff L
Riff I&J
Riff K
Riff M
Riff N
Riff O x2
Riff P&P(1)x4
Riff Q
Riff K
Riff R
Riff I&J
Riff K
Riff M
Riff S
Riff P&P(1)x4
Riff O x2
Solo & Riff t
Riff P&P(1)x4
Riff U
Riff V
Riff W
Riff V
Riff W





Comments


Popular Children Of Bodom tabs & chords
Children Of Decadence Drum Tabs
Aces High Tabs
Bed Of Razors 2 Tabs
Children Of Decadence 1 Tabs
Deadnight Warrior Tabs
Kissing The Shadows Tabs
Mask Of Sanity 1 Tabs
Reap And Roll Excercise 3 Tabs
Reap And Roll Excercise 5 Tabs
Triple Corpse Hammerblow Tabs


Song lyrics



↑ Back to top | Tablatures and chords are parodies/interpretations of the original songs. You may use it for private study, scholarship, research or language learning purposes only
© 2014 AZChords.com Contact us | Privacy policy | DMCA | Add/correct tabs | Request tabs | Top 50 tabs