» » »

Children Of Bodom, Are You Dead Yet Tabs (ver.3)

Artists:  A B C D E F G H I J K L M N O P Q R S T U V W X Y Z # 

Are You Dead Yet Tabs (ver.3)

Children Of Bodom Tabs
 Rating:
4/5 (4 votes)
Are You Dead Yet lessons Tabs too difficult? Try these video lessons and learn fast
                Are you dead yet?
Children of Bodom
Are you Dead Yet?
Tuning - CGCFAD

.  - palm mute           /  - slide up to
\  - slide down to       ~  - vibrato
h  - hammer on           b  - Bend
p  - pull off            Suffixes for bend
t  - tap                 f  - full bend    h - half bend
*  - pinched harmonic    q  - quarter bend t - tap bend
^  - Hold bend           r release bend
x  - Stuccatto           ~  - vibrato bend
,  - slight palm mute    () - ghost note, sustained note
"  - tremolo note        <> - Trill

I tried submitting this a while ago, but it got rejected. 
so i came back and fixed a lot of it. it was definately not 
the easiest tab on earth... i put alexi's and roopes parts on top of each
other so you can see how they corralate. everything is in 
chronological order. on the solo i used version 2's except 
for the beginning. i also included the rhythm part. no other tab included the
rhythm part. this took me FOREVER to do...






____________

   INTRO
____________








  Alexi's part
D|-------------------------------------------------------------------------------------|
A|-------------------------------------------------------------------------------------|
F|-------------------------------------------------------------------------------------|
C|----------------------------------------8-------10-------8---------------------------|
G|----5p0-5h6p5~----5p0-5h6b8~----5p0-5-6-8-6-5-6-8--6-5-6-8---5p0-5h6p5~----5p0-5-8*~-|
C|--00------------00------------00---------------------------00------------00----------|
    ..            ..            ..    , ,   , , ,   ,        ..            ..
D|---------------------------------------|
A|---------------------------------------|
F|------------------3----2-----------3-5-|
C|-----------------3----2--0-1-0-1-0-3-5-|
G|----5p0-5h6p5~--1----0---0-1-0-1-0-1-3-|
C|--00-----------0----0----0-1-0-1-0-----|
    ..                     . . . . .



  Roope's Part
D|-------------------------------------------------------------------------------------|
A|-------------------------------------------------------------------------------------|
F|-------------------------------------------------------------------------------------|
C|--00--------------------------00-------------------------------------------------8*~-|
G|--00--------------------------00-----------------------------5p0-5h6p5~----5p0-5-----|
C|--00--------------------------00---------------------------00------------00----------|
    ..                          ..                           ..            ..
D|---------------------------------------|
A|---------------------------------------|
F|------------------3----2-----------3-5-|
C|-----------------3----2--0-1-0-1-0-3-5-|
G|----5p0-5h6p5~--1----0---0-1-0-1-0-1-3-|
C|--00-----------0----0----0-1-0-1-0-----|
    ..                     . . . . .



  BOTH                           (on the pinch, alexi does one and roope does the other) 
D|-------------------------------------------------------------------------------------|
A|-------------------------------------------------------------------------------------|
F|-------------------------------------------------------------------------------------|
C|----------------------------------------8-------10-------8-----------------------8*~-|
G|----5p0-5h6p5~----5p0-5h6b8~----5p0-5-6-8-6-5-6-8--6-5-6-8---5p0-5h6p5~----5p0-5-8*~-|
C|--00------------00------------00---------------------------00------------00----------|
    ..            ..            ..    , ,   , , ,   ,        ..            ..
D|-------------------------|
A|-------------------------|
F|------------------3----2-|
C|-----------------3----2--|
G|----5p0-5h6p5~--1----0---|
C|--00-----------0----0----|

D|-----------------------------------------------------|
A|-----------------------------------------------------|
F|-----------------------------------------------------|
C|----7-7/8\7----7-7/8--------------8-------10-------8-|
G|----5-5/6\5----5-5/6------5p0-5-6-8-6-5-6-8--6-5-6-8-|
C|--00---------00---------00---------------------------|x2
    ..         ..         ..


  Alexi
D|------13----13----13--13-------13----13----13--------|
A|----17----17----17--13--17---17----17----17--13--13--|
F|-----------------------------------------------12----|
C|-----------------------------------------------------|
G|-----------------------------------------------------|
C|-----------------------------------------------------|


  Roope
D|-----------------------------------------------------|
A|-----------------------------------------------------|
F|-----------------------------------------------------|
C|--00----00----00-----------00----00----00------------|
G|--00----00----00-----------00----00----00------------|
C|--00----00----00-----------00----00----00--Pickslide-|
    ..    ..    ..           ..    ..    ..


  Alexi
D|------13----13----13--13-------13----13----13--------|
A|----17----17----17--13--17---17----17----17--13--13--|
F|-----------------------------------------------12----|
C|-----------------------------------------------------|
G|-----------------------------------------------------|
C|-----------------------------------------------------|x2

  Roope
D|---------------------------|
A|---------------------------|
F|--7--5--7--5---------------|
C|--7--5--7--5--0--3--6--1---|
G|--5--3--5--3--0--3--6--1---|
C|--------------0--3--6--1---|Background of high riff







__________

  Verse
__________


0:46








  Alexi
D|-----------------------------------------------|
A|-----------------------------------------------|
F|-----------------------------------------------|
C|-----------------------------------------------|
G|--00--00--00--000--000--000----88----88----88--|
C|--00--00--00--000--000--000----88----88----88--|
    ..  ..  ..  ...  ...  ...    ..    ..    ..
  Roope
D|-----------------------------------------------|
A|-----------------------------------------------|
F|-----------------------------------------------|
C|---------------------------------1010--1010----|
G|----00--00----000--000--000------8-8---8-8-----|
C|----00--00----000--000--000--------------------|
      ..  ..    ...  ...  ...      . .   . .

  Alexi
D|------------------------------------17~~-----------|
A|---------------------------15----------------------|
F|------------------14-------------------------------|
C|-7^--------r12-15----12-15----12-15----------------|
G|---------------------------------------------------|
C|---------------------------------------------------|

  Roope
D|------------------------------------22~~-----------|
A|---------------------------15----------------------|
F|------------------14-------------------------------|
C|-7^--------r12-15----12-15----12-15----------------|
G|---------------------------------------------------|
C|---------------------------------------------------|


  Alexi
D|------13----13----13--13-------13----13----13--------|
A|----17----17----17--13--17---17----17----17--13--13--|
F|-----------------------------------------------12----|
C|-----------------------------------------------------|
G|-----------------------------------------------------|
C|-----------------------------------------------------|


  Roope
D|--------------|
A|--------------|
F|--7--5--7--5--|
C|--7--5--7--5--|
G|--5--3--5--3--|
C|--------------|


  Alexi
D|--------------------------------------------------|
A|--------------------------------------------------|
F|--------------------------------------------------|
C|--------------------------------------------------|
G|--00--00--00--00000-00000-00000---88----88----88--|
C|--00--00--00--00000-00000-00000---88----88----88--|
    ..  ..  ..  ..... ..... .....   ..    ..    ..
  Roope
D|--------------------------------------------------|
A|--------------------------------------------------|
F|--------------------------------------------------|
C|------------------------------------1010--1010----|
G|----00--00----00000-00000-00000-----8-8---8-8-----|
C|----00--00----00000-00000-00000-------------------|
      ..  ..    ..... ..... .....     . .   . .

  BOTH
D|---------------------------------------------|
A|---------------------------------------------|
F|---------------------------------------------|
C|---------------------------------------------|
G|--88888--1010101010--1212121212--1414141414--|
C|--88888--1010101010--1212121212--1414141414--|
    .....  . . . . .   . . . . .   . . . . .

  Both
D|-------------------|
A|-------------------|
F|-------------3--5--|
C|--0-1-0-1-0--3--5--|
G|--0-1-0-1-0--1--3--|
C|--0-1-0-1-0--------|
    . . . . .








______________

  Post Verse
______________

1:12







  BOTH                           (on the pinch, alexi does one and roope does the other) 
D|-------------------------------------------------------------------------------------|
A|-------------------------------------------------------------------------------------|
F|-------------------------------------------------------------------------------------|
C|----------------------------------------8-------10-------8-----------------------8*~-|
G|----5p0-5h6p5~----5p0-5h6b8~----5p0-5-6-8-6-5-6-8--6-5-6-8---5p0-5h6p5~----5p0-5-8*~-|
C|--00------------00------------00---------------------------00------------00----------|
    ..            ..            ..    , ,   , , ,   ,        ..            ..
D|-------------------------|
A|-------------------------|
F|-------------------------|
C|----------------5-7-8-10-|
G|----5p0-5h6p5~--5-7-8-10-|
C|--00------------5-7-8-10-|








________________

  Bridge Riff
________________

1:22






  Alexi
D|-----------------------------------------------------------------------------------------|
A|-----------------------------------------------------------------------------------------|
F|-------14-------14----14-/------17----\-------12----/-------15-------15----15-\-----10---|
C|-12-12----12-12----12----/15-15----15-\-10-10----10-/-13-13----13-13----13----\-8-8----8-|
G|-----------------------------------------------------------------------------------------|
C|-----------------------------------------------------------------------------------------|

D|-------------|
A|----------8--|
F|-------7-----|
C|-----8-------|
G|--10---------|
C|-------------|

  Roope
D|-----------------------------------------------------------------------------------------|
A|-----------------------------------------------------------------------------------------|
F|-------10-------10----10-/------14----\------12----/-------12-------12----12-\-----7-----|
C|-12-12----12-12----12----/15-15----15-\-14-14---14-/-13-13----13-13----13----\-8-8----8--|
G|-----------------------------------------------------------------------------------------|
C|-----------------------------------------------------------------------------------------|

D|-------------|
A|-------11-10-|
F|-------------|
C|----12-------|
G|--13---------|
C|-------------|






_____________

   Chorus
_____________

1:33






  BOTH
D|----------------------------------------------------------------------------|
A|----------------------------------------------------------------------------|
F|----------------------------------------------------------------------------|
C|--1~~-7~~-0~--3/10--1~~--7~~-0~-3--------1~--7~--0~--3/10--1~--7~~--0~-3/10-|
G|--1~~-7~~-0~--3/10--1~~--7~~-0~-3--------1~--7~--0~--3/10--1~--7~~--0~-3/10-|
C|--1~~-7~~-0~--3/10--1~~--7~~-0~-3--5*~~--1~--7~--0~--3/10--1~--7~~--0~-3/10-|


  Anyone (?) it sounds like this is in the background 
D|------------------|with like a synth wah chorus effect or somethin
A|--18p17h18p17h18--|you can decide for yourself.
F|------------------|
C|------------------|
G|------------------|
C|------------------|x many






________________
 
  Post Chorus
________________


1:52





  Alexi
D|------13----13----|
A|----17----17------|
F|------------------|
C|------------------|
G|------------------|
C|------------------|

  Roope
D|------------------|
A|------------------|
F|------------------|
C|--00----00--------|
G|--00----00--------|
C|--00----00--------|
    ..    ..    






______________

    Verse
______________


1:54






  Alexi
D|-----------------------------------------------|
A|-----------------------------------------------|
F|-----------------------------------------------|
C|-----------------------------------------------|
G|--00--00--00--000--000--000----88----88----88--|
C|--00--00--00--000--000--000----88----88----88--|
    ..  ..  ..  ...  ...  ...    ..    ..    ..
  Roope
D|-----------------------------------------------|
A|-----------------------------------------------|
F|-----------------------------------------------|
C|---------------------------------1010--1010----|
G|----00--00----000--000--000------8-8---8-8-----|
C|----00--00----000--000--000--------------------|
      ..  ..    ...  ...  ...      . .   . .

  Alexi
D|------------------------------------17~~-----------|
A|---------------------------15----------------------|
F|------------------14-------------------------------|
C|-7^--------r12-15----12-15----12-15----------------|
G|---------------------------------------------------|
C|---------------------------------------------------|

  Roope
D|------------------------------------22~~-----------|
A|---------------------------15----------------------|
F|------------------14-------------------------------|
C|-7^--------r12-15----12-15----12-15----------------|
G|---------------------------------------------------|
C|---------------------------------------------------|


  Alexi
D|------13----13----13--13-------13----13----13--------|
A|----17----17----17--13--17---17----17----17--13--13--|
F|-----------------------------------------------12----|
C|-----------------------------------------------------|
G|-----------------------------------------------------|
C|-----------------------------------------------------|

  Roope
D|--------------|
A|--------------|
F|--------------|
C|--0--3--2--1--|
G|--0--3--2--1--|
C|--0--3--2--1--|

  Alexi
D|--------------------------------------------------|
A|--------------------------------------------------|
F|--------------------------------------------------|
C|--------------------------------------------------|
G|--00--00--00--00000-00000-00000---88----88----88--|
C|--00--00--00--00000-00000-00000---88----88----88--|
    ..  ..  ..  ..... ..... .....   ..    ..    ..
  Roope
D|--------------------------------------------------|
A|--------------------------------------------------|
F|--------------------------------------------------|
C|------------------------------------1010--1010----|
G|----00--00----00000-00000-00000-----8-8---8-8-----|
C|----00--00----00000-00000-00000-------------------|
      ..  ..    ..... ..... .....     . .   . .

  BOTH
D|---------------------------------------------|
A|---------------------------------------------|
F|---------------------------------------------|
C|---------------------------------------------|
G|--88888--1010101010--1212121212--1414141414--|
C|--88888--1010101010--1212121212--1414141414--|
    .....  . . . . .   . . . . .   . . . . .

  Both
D|---------------------|
A|---------------------|
F|----------------3-5--|
C|-303030303030---3-5--|
G|-303030303030---1-3--|
C|-303030303030--------|
   ............




_______________

    Chorus
_______________

2:21



  BOTH
D|----------------------------------------------------------------------------|
A|----------------------------------------------------------------------------|
F|----------------------------------------------------------------------------|
C|--1~~-7~~-0~--3/10--1~~--7~~-0~-3--------1~--7~--0~--3/10--1~--7~~--0~-3/10-|
G|--1~~-7~~-0~--3/10--1~~--7~~-0~-3--------1~--7~--0~--3/10--1~--7~~--0~-3/10-|
C|--1~~-7~~-0~--3/10--1~~--7~~-0~-3--5*~~--1~--7~--0~--3/10--1~--7~~--0~-3/10-|


  Anyone (?) it sounds like this is in the background 
D|------------------|with like a synth wah chorus effect or somethin
A|--18p17h18p17h18--|you can decide for yourself.
F|------------------|
C|------------------|
G|------------------|
C|------------------|x many


  BOTH
D|----------------|
A|----------------|
F|----------------|
C|----------------|
G|-----6----7b8~~-|
C|--00---00-------|
    ..   ..




_________________

  Bridge Riff 2
_________________


2:41





  Alexi
D|-----------------------------------------------------------------------------------------|
A|-----------------------------------------------------------------------------------------|
F|-------14-------14----14-/------17----\-------12----/-------15-------15----15-\-----10---|
C|-12-12----12-12----12----/15-15----15-\-10-10----10-/-13-13----13-13----13----\-8-8----8-|
G|-----------------------------------------------------------------------------------------|
C|-----------------------------------------------------------------------------------------|

D|-------------|
A|----------8--|
F|-------7-----|
C|-----8-------|
G|--10---------|
C|-------------|

  Roope
D|-----------------------------------------------------------------------------------------|
A|-----------------------------------------------------------------------------------------|
F|-------10-------10----10-/------14----\------12----/-------12-------12----12-\-----7-----|
C|-12-12----12-12----12----/15-15----15-\-14-14---14-/-13-13----13-13----13----\-8-8----8--|
G|-----------------------------------------------------------------------------------------|
C|-----------------------------------------------------------------------------------------|

D|-------------|
A|-------11-10-|
F|-------------|
C|----12-------|
G|--13---------|
C|-------------|





_____________
 
   Solo...
_____________



2:52


  Alexi
D|------------------------19^-19^--|
A|--15^~---18^-17^--20^~-----------|
F|---------------------------------|
C|---------------------------------|
G|---------------------------------|
C|---------------------------------|

D|------19-------19ph-/17--------19-22--------22ph-/21-------21-|
A|---------17-17----------15-17--------20-20-----------19-19----|
F|--------------------------------------------------------------|
C|--------------------------------------------------------------|
G|--------------------------------------------------------------|
C|--------------------------------------------------------------|


 _________________________________VERYFAST___________________________________

D|-20-17-19-20-19-17-------------17------------------------------------------|
A|----------------20-19-17-19-20----20-19-17---------------------------------|
F|-------------------------------------------19-20-17-19-20-19-17-------19-17|
C|----------------------------------------------------------------19-17------|
G|---------------------------------------------------------------------------|
C|---------------------------------------------------------------------------|


  ___VERY FAST______
 |                  |
D|---------------------17^-------r17^-------r15------22^------------r-|
A|---------------------18^-------r18^-------r---17--------------------|
F|---------------17---------------------------------------------------|
C|-19-17----17-19-----------------------------------------------------|
G|------19------------------------------------------------------------|
C|--------------------------------------------------------------------|


D|-17-13-------20-17-------17-13---------17-12-------------------------------|
A|-------15----------18----------15------------13-----14^---r14^------r------|
F|----------14----------19----------14------------14--14^---r14^------r12----|
C|------------------------------------------------------------------------14-|
G|---------------------------------------------------------------------------|
C|---------------------------------------------------------------------------|


D|---------------------------------------------------------------------------|
A|-14^---r14^---r----------------------------------------13b--------13b--15b-|
F|-14^---r14^---r-12----14-12-----------14b----12b---14b--------14b----------|
C|-------------------14-------14---------------------------------------------|
G|---------------------------------------------------------------------------|
C|---------------------------------------------------------------------------|


D|------------12b-------12b--15b----------|
A|-13b----15-------15---------------------|
F|----------------------------------------|
C|----------------------------------------|
G|----------------------------------------|
C|----------------------------------------|



  Roope (background) same rythym as the bridge.
D|----------------------------------------------------------------|
A|----------------------------------------------------------------|
F|----------------------------------------------------------------|
C|----------------------------------------------------------------|
G|--22-5-22-5-2-5--55-8-5--44-7-4--33-6-33-6-3-6--00-3-0--00-3-0--|
C|--22-5-22-5-2-5--55-8-5--44-7-4--33-6-33-6-3-6--00-3-0--00-3-0--|x idk. figure it out.





__________________

   Final Chorus
__________________

3:12


  BOTH
D|-------------------------------------------------------------------------------------|
A|-------------------------------------------------------------------------------------|
F|-------------------------------------------------------------------------------------|
C|--1~~-7~~-0~--3/10--1~~--7~~-0~-3--------1~--7~--0~--3/10--1~--7~~--0~-\-------------|
G|--1~~-7~~-0~--3/10--1~~--7~~-0~-3--------1~--7~--0~--3/10--1~--7~~--0~-\----6---7b8~-|
C|--1~~-7~~-0~--3/10--1~~--7~~-0~-3--5*~~--1~--7~--0~--3/10--1~--7~~--0~-\-00--00------|
                                                                           ..  ..
 
  Anyone (?) it sounds like this is in the background 
D|------------------|with like a synth wah chorus effect or somethin
A|--18p17h18p17h18--|you can decide for yourself.
F|------------------|
C|------------------|
G|------------------|
C|------------------|x many



__________
 
  Outro
__________

3:32

  BOTH
D|-----------------------------------------------------|
A|-----------------------------------------------------|
F|-----------------------------------------------------|
C|----7-7/8\7----7-7/8--------------8-------10-------8-|
G|----5-5/6\5----5-5/6------5p0-5-6-8-6-5-6-8--6-5-6-8-|
C|--00---------00---------00---------------------------|
    ..         ..         ..

  BOTH
D|-----------------------------------------------------|
A|-------------------10*~~-----------------------------|
F|-----------------------------------------------------|
C|----7-7/8\7----7-7----------------8-------10-------8-|
G|----5-5/6\5----5-5--------5p0-5-6-8-6-5-6-8--6-5-6-8-|
C|--00---------00---------00---------------------------|
    ..         ..         ..

  BOTH
D|-----------------------------------------------------|
A|-----------------------------------------------------|
F|-----------------------------------------------------|
C|----7-7/8\7----7-7/8--------------8-------10-------8-|
G|----5-5/6\5----5-5/6------5p0-5-6-8-6-5-6-8--6-5-6-8-|
C|--00---------00---------00---------------------------|x2
    ..         ..         ..








Oh man... i hope that was good. enjoy. leave comments and ratings PLEASE. cob rules.
            
Submit corrections

comments powered by Disqus
↑ Back to top | Children Of Bodom Tabs for Are You Dead Yet. Lyrics for acoustic guitar and electric guitar. Tablatures and chords are parodies/interpretations of the original songs. You may use it for private study, scholarship, research or language learning purposes only