>
 >
Are You Dead Yet?

Are You Dead Yet? Bass Tabs

Children Of Bodom - Are You Dead Yet? chords, tabs, tablatures, lyrics

Guitar lessons | Add/correct | Request | Top 50 tabs Artists:  A B C D E F G H I J K L M N O P Q R S T U V W X Y Z 0-9

Are You Dead Yet? Bass Tabs – Children Of Bodom

CD, Sheet music, Poster

Do you like Are You Dead Yet?? Share with your friends now
Bass TabsDrum TabsTabsTabs v2Tabs v3
Children of Bodom
CGCF

Intro:
|------|   |----------|---------|--------|----------|
|*----*|   |----------|---------|--------|----------|
|*----*|   |------1-3-|---------|--------|----------|
|-00-r-|X6 |-0000-----|-0000010-|-000001-|-00000131-|

|----------|---------|--------|----------|----------|
|----------|---------|--------|----------|--03--32--|
|----------|---------|--------|----------|-1--10--3-|
|-01310131-|-0000010-|-000001-|-00000157-|----------|

|---------|--------|----------|-----------|
|*--------|--------|-------3--|---3---3--*|
|*--5-565-|---5-56-|---5-35-5-|-35-535-3-*|
|-00-0----|-00-0---|-00-0-----|-----------|

|------|   |-------------------------|
|*----*|   |-------------------------|
|*----*|   |----3~-5~-3~-------------|
|-00-r-|X6 |-0~----------0~-3~-6~-1~-|

Verse 1:
|------|   |-------------------|
|*----*|   |-------------------|
|*----*|   |-------------------|
|-00-r-|X3 |-000-r-000-r-000-r-|

|------|   |-------------|----------|-------------|
|*----*|   |-------------|----------|-------------|
|*----*|   |-------------|----------|----3~-5~-3~-|
|-88-r-|X3 |-8~-88883333-|-5555-12\-|-0~----------|

|------|   |-------------------------|
|*----*|   |-------------------------|
|*----*|   |-------------------------|
|-00-r-|X3 |-00000-r-00000-r-00000-r-|

|------|   |-----------------|-----------------|
|*----*|   |-----------------|-----------------|
|*----*|   |-11111-r-11111-r-|-11111-r-33333-r-|
|-88-r-|X3 |-----------------|-----------------|

|----------|---------|--------|----------|
|----------|---------|--------|----------|
|------1-3-|---------|--------|----------|
|-0000-----|-0000010-|-000001-|-00000232-|

|----------|---------|--------|----------|--------------|
|----------|---------|--------|----------|--------------|
|----------|---------|--------|----------|--------------|
|-03530232-|-0000010-|-000001-|-00000101-|-5~-7~-8~-10~-|

Pre-Chorus:
|----------|----------|----------|----------|
|----------|----------|----------|----------|
|----------|-----3333-|-66666666-|----------|
|-00000000-|-3333-----|----------|-88885555-|

|----------|----------|----------|----------|
|----------|----------|----------|----------|
|----------|-----3333-|-66666666-|----------|
|-00000000-|-3333-----|----------|-88887777-|

Chorus 1:
|----------------|
|*--------------*|
|*---0~------3~-*|
|-1~----0~-3~----|X4

Verse 2:
|------|   |-------------------|
|*----*|   |-------------------|
|*----*|   |-------------------|
|-00-r-|X5 |-000-r-000-r-000-r-|

|------|   |----------|--------------|
|*----*|   |----------|--------------|
|*----*|   |-----8888-|--------------|
|-88-r-|X3 |-8888-----|-10101010-12\-|

|-------------|
|-------------|
|-------------|
|-0~-3~-2~-1~-|

|------|   |-------------------------|
|*----*|   |-------------------------|
|*----*|   |-------------------------|
|-00-r-|X3 |-00000-r-00000-r-00000-r-|

|------|   |-----------------|-----------------|
|*----*|   |-----------------|-----------------|
|*----*|   |-11111-r-11111-r-|-11111-r-33333-r-|
|-88-r-|X3 |-----------------|-----------------|

|-----------|----------|
|-----------|----------|
|-----------|------1-3-|
|-3000-2030-|-3020-----|

Chorus:

Interlude:
|---------|----------|----------|----------|----------|
|---------|----------|----------|----------|----------|
|---6-6~-|----------|-----3333-|-66666666-|----------|
|-00-00---|-00000000-|-3333-----|----------|-88885555-|

|----------|----------|----------|----------|
|----------|----------|----------|----------|
|----------|-----3333-|-66666666-|----------|
|-00000000-|-3333-----|----------|-88887777-|

Solo:
|----------|----------|----------|----------|
|*---------|----------|----------|---------*|
|*---------|----------|----------|---------*|
|-22522525-|-55854474-|-33733737-|-00300202-|X4

Chorus:

Outro:
|---------|--------|----------|-----------|
|*--------|--------|-------3--|---3---3--*|
|*--5-565-|---5-56-|---5-35-5-|-35-535-3-*|
|-00-0----|-00-0---|-00-0-----|-----------|X4





Comments


Popular Children Of Bodom tabs & chords
Needled 24 7 3 Bass Tabs
Sixpounder 3 Bass Tabs
Warheart Bass Tabs
Kissing The Shadows Drum Tabs
Are You Dead Yet? Tabs
Are You Dead Yet? 1 Tabs
Reap And Roll Excercise 16 Tabs
Sixpounder (Intro) Tabs
Summer Tabs
Triple Corpse Hammerblow 1 Tabs


Song lyrics



↑ Back to top | Tablatures and chords are parodies/interpretations of the original songs. You may use it for private study, scholarship, research or language learning purposes only
© 2014 AZChords.com Contact us | Privacy policy | DMCA | Add/correct tabs | Request tabs | Top 50 tabs