>
 >
Angels Don't Kill 2

Angels Don't Kill 2 Bass Tabs

Children Of Bodom - Angels Don't Kill 2 chords, tabs, tablatures, lyrics

Guitar lessons | Add/correct | Request | Top 50 tabs Artists:  A B C D E F G H I J K L M N O P Q R S T U V W X Y Z 0-9

Angels Don't Kill 2 Bass Tabs – Children Of Bodom

CD, Sheet music, Poster

Do you like Angels Don't Kill 2? Share with your friends now
Bass TabsBass Tabs v2Bass Tabs v3TabsTabs v2Tabs v3
Tablature Legend
----------------
L - tied note 


                                                                
D#||-------------------|-------------------|-------------------|
A#||-------------------|-------------------|-------------------|
F ||-------------------|-------------------|-------------------|
C ||-------------------|-------------------|-------------------|


                                                                
-------------------||--------------------|--------------------||
-------------------||*-------------------|-------------------*||
-------------------||*-------------------|-------------------*||
-------------------||---0----------------|--L-----------------||


                                                                              
-------------------------|--------------------------|------------------------|
-----------2-2-0--2-2-0--|--------------------------|------------------------|
-------------------------|--------------------------|------------------------|
-------------------------|--0--0--0--0--0--0--0--0--|--0--0--0--0--0----1----|


                                                                               
--------------------------|------------------------|--------------------------|
--------------------------|------------------------|--------------------------|
--------------------------|-------------------1----|--------------------------|
--0--0--0--0--0--0--0--0--|--0--0--0--0--0---------|--0--0--0--0--0--0--0--0--|


                                                                             
------------------------|--------------------------|------------------------|
------------------------|--------------------------|------------------------|
------------------------|--------------------------|-------------------1----|
--0--0--0--0--0----1----|--0--0--0--0--0--0--0--0--|--0--0--0--0--0---------|


                                                                       
--------------------|----------------------------|--------------------|
-----------0--------|----------------------------|-----------0--------|
--3-----------------|----------------------------|--3-----------------|
--------------------|--0-0------0-0----0-0----0--|--------------------|


                                                                               
----------------------------|--------------------|----------------------------|
----------------------------|-----------0--------|----------------------------|
----------------------------|--3-----------------|----------------------------|
--0-0------0-0----0-0----0--|--------------------|--0-0------0-0----0-0----0--|


                                                 .      .           
--------------------|------------------------|---------------------|
-----------0--------|-------------------0----|---------0-----------|
--3-----------------|--2--2--2--2--2---------|----------------3----|
--------------------|------------------------|--0------------------|


        .         .         .      .              .                   
------------------------|---------------------|----------------------|
------------------------|---------0-----------|----------------------|
--L----L---0-3---3------|--3-------------0----|--L------/2--------L--|
------------------------|---------------------|--L-------------------|


   .      .                   .         .         .      .           
---------------------|------------------------|---------------------|
---------0-----------|------------------------|---------0-----------|
----------------3----|--L----L---0-3---3------|--3-------------0----|
--0------------------|------------------------|---------------------|


   .                                                                     
----------------------|--------------------|----------------------------|
----------------------|-----------0--------|----------------------------|
--L------/2--------L--|--3-----------------|----------------------------|
----------------------|--------------------|--0-0------0-0----0-0----0--|


                                                                       
--------------------|----------------------------|--------------------|
-----------0--------|----------------------------|-----------0--------|
--3-----------------|----------------------------|--3-----------------|
--------------------|--0-0------0-0----0-0----0--|--------------------|


                                                                         .   
----------------------------|--------------------|--------------------------|
----------------------------|-----------0--------|----------------------0---|
----------------------------|--3-----------------|--2-2------2-2------L-----|
--0-0------0-0----0-0----0--|--------------------|--------------------------|


                                                                               
--------------------------|------------------------|--------------------------|
--------------------------|------------------------|--------------------------|
--------------------------|------------------------|--------------------------|
--0--0--0--0--0--0--0--0--|--0--0--0--0--0----1----|--0--0--0--0--0--0--0--0--|


                                                                             
------------------------|--------------------------|------------------------|
------------------------|--------------------------|------------------------|
-------------------1----|--------------------------|------------------------|
--0--0--0--0--0---------|--0--0--0--0--0--0--0--0--|--0--0--0--0--0----1----|


                                                                          
--------------------------|------------------------|---------------------|
--------------------------|------------------------|----------------0----|
--------------------------|-------------------1----|--0--------2---------|
--0--0--0--0--0--0--0--0--|--0--0--0--0--0---------|---------------------|


                .                              
------------------------|---------------------|
-------------------0----|----------------0----|
------------------------|--0--------2---------|
--0--0-------0-0--------|---------------------|


                                                         
----------------------------------|---------------------|
----------0-0-0-0---------0-0-0-0-|----------------0----|
----------------------------------|--0--------2---------|
--0-0-0-0---------0-0-0-0---------|---------------------|


                .                              
------------------------|---------------------|
-------------------0----|----------------0----|
------------------------|--0--------2---------|
--0--0-------0-0--------|---------------------|


                                                        
----------------------------------|--------------------|
------------0-0-0-----------0-0-0-|-----------0--------|
----------------------------------|--3-----------------|
----0-0-0-----------0-0-0---------|--------------------|


                                                                               
----------------------------|--------------------|----------------------------|
----------------------------|-----------0--------|----------------------------|
----------------------------|--3-----------------|----------------------------|
--0-0------0-0----0-0----0--|--------------------|--0-0------0-0----0-0----0--|


                                                                       
--------------------|----------------------------|--------------------|
-----------0--------|----------------------------|-----------0--------|
--3-----------------|----------------------------|--3-----------------|
--------------------|--0-0------0-0----0-0----0--|--------------------|


                              .   .                       .            
--------------------------|---------------------|---------------------|
--------------------------|---------------------|---------------------|
--2--2--2--2--2--2--2--2--|---------------------|---------------------|
--------------------------|--0------------------|--0--0---------------|


                                                              
-------------------|---------------------|-------------------|
-------------------|---------------------|-------------------|
-------------------|----------------2----|-------------------|
--0----------------|--L--------3---------|--0----------------|


                                                                   
-------------------|----------------------|-----------------------|
-------------------|-----------------1----|--3--1-----------------|
-------------------|-------4--------------|--------4---------3----|
--L----------------|--1---------4---------|-------------4---------|


                                                                   
----------------------|-----------------------|-------------------|
-----------------1----|--3--1-----------------|-------------------|
-------4--------------|--------4---------3----|--2----------------|
--1---------4---------|-------------4---------|-------------------|


                                                                          
-------------------|--------------------------|--------------------------|
-------------------|--------------------------|-----------0--------------|
-------------------|-----------3--------------|--------------------------|
--3----------------|--0--0--0-----0--0--0--0--|--0--0--0-----0--0--0--0--|


                                    .            .      
--------------------------|----------------------------|
--------------------------|---------------------0---0--|
-----------3--------------|--------0-------------------|
--0--0--0-----0--0--0--0--|--0-0-0-----3--0-0-0--------|


                                                      
--------------------------|--------------------------|
--------------------------|-----------0--------------|
-----------3--------------|--------------------------|
--0--0--0-----0--0--0--0--|--0--0--0-----0--0--0--0--|


                                    .            .                  
--------------------------|----------------------------|-----------|
--------------------------|---------------------0---0--|-----------|
-----------3--------------|--------0-------------------|-----------|
--0--0--0-----0--0--0--0--|--0-0-0-----3--0-0-0--------|-----------|


                                           .      .           
-------------------|-------------------|---------------------|
-------------------|-------------------|---------0-----------|
-------------------|-------------------|--3-------------0----|
-------------------|-------------------|---------------------|


                           .      .                   .         .      
-----------------------|---------------------|------------------------|
-----------------0-----|--2------0-----------|------------------------|
--L--------2--2-----2--|----------------3----|--L----L-----3---3------|
-----------------------|---------------------|-----------3------------|


   .      .              .                      .      .           
---------------------|----------------------|---------------------|
---------0-----------|----------------------|--2------0-----------|
--3-------------0----|--L------/2--------L--|----------------3----|
---------------------|----------------------|---------------------|


        .         .         .      .              .                   
------------------------|---------------------|----------------------|
------------------------|---------0-----------|----------------------|
--L----L-----3---3------|--3-------------0----|--L------/2--------L--|
-----------3------------|---------------------|----------------------|


                                                                        
-------------------|--------------------------|------------------------|
-------------------|--------------------------|------------------------|
-------------------|--------------------------|------------------------|
-------------------|--0--0--0--0--0--0--0--0--|--0--0--0--0--0----1----|


                                                                               
--------------------------|------------------------|--------------------------|
--------------------------|------------------------|--------------------------|
--------------------------|-------------------1----|--------------------------|
--0--0--0--0--0--0--0--0--|--0--0--0--0--0---------|--0--0--0--0--0--0--0--0--|


                                                                             
------------------------|--------------------------|------------------------|
------------------------|--------------------------|------------------------|
------------------------|--------------------------|-------------------1----|
--0--0--0--0--0----1----|--0--0--0--0--0--0--0--0--|--0--0--0--0--0---------|


                                                                               
--------------------------|------------------------|--------------------------|
--------------------------|------------------------|--------------------------|
--------------------------|------------------------|--------------------------|
--0--0--0--0--0--0--0--0--|--0--0--0--0--0----1----|--0--0--0--0--0--0--0--0--|


                                                                             
------------------------|--------------------------|------------------------|
------------------------|--------------------------|------------------------|
-------------------1----|--------------------------|------------------------|
--0--0--0--0--0---------|--0--0--0--0--0--0--0--0--|--0--0--0--0--0----1----|

                                   
                                                                                
--------------------------|--------------------------------|-------------------|
--------------------------|--------------------------------|-------------------|
--------------------------|---------------------------1----|-------------------|
--0--0--0--0--0--0--0--0--|--0-0-0-0----0-0-0-0--0---------|--0----------------|


                                         
-------------------|-------------------||
-------------------|-------------------||
-------------------|-------------------||
--L----------------|-------------------||





Comments


Popular Children Of Bodom tabs & chords
Downfall 2 Bass Tabs
Hatebreeder Bass Tabs
Youre Better Off Dead Bass Tabs
Towards Dead End Drum Tabs
Deadnight Warrior Tabs
Follow The Reaper Tabs
If You Want Peace Prepare For War Tabs
Reap And Roll Excercise 2 Tabs
Taste Of My Scythe 1 Tabs
Touch Like Angel Of Death Live Tabs


Song lyrics



↑ Back to top | Tablatures and chords are parodies/interpretations of the original songs. You may use it for private study, scholarship, research or language learning purposes only
© 2014 AZChords.com Contact us | Privacy policy | DMCA | Add/correct tabs | Request tabs | Top 50 tabs