» » »

Children Of Bodom, Angels Don't Kill Bass tabs (ver.1)

Artists:  A B C D E F G H I J K L M N O P Q R S T U V W X Y Z # 

Angels Don't Kill Bass tabs (ver.1)

Children Of Bodom Tabs
 Rating:
4/5 (5 votes)
Angels Don't Kill lessons Tabs too difficult? Try these video lessons and learn fast
1
                
ANGELS DON'T KILL (Bassline)
As recorded by Children Of Bodom
(From the 2003 Album HATE CREW DEATHROLL)

	

Words and Music by Alexi Laiho
Arranged by Children Of Bodom

Gtr I (C F C D#) - 'Bass'

 Intro
  Q=94
 4/4
  Gtr I
  W          W          W          W
|----------|----------|----------|------|
|----------|----------|----------|------|
|----------|----------|----------|------|
|----------|----------|----------|------|


  W          +W           W          +H     S S E S S E
|----------|------------|----------|------------8-----8-||
|----------|------------|----------|--------3-3---3-3---||
|----------|------------|----------|--------------------||
|-1--------|-(1)--------|-1--------|-(1)----------------||


 Chorus
  E E E E E E E E   E E E E Q  Q    E E E E E E E E   E E E E Q  Q
|-----------------|---------------|-----------------|---------------|
|-----------------|---------------|-----------------|---------------|
|-----------------|---------------|-----------------|------------2--|
|-1-1-1-1-1-1-1-1-|-1-1-1-1-1--2--|-1-1-1-1-1-1-1-1-|-1-1-1-1-1-----|


  E E E E E E E E   E E E E Q  Q    E E E E E E E E   E E E E Q  Q
|-----------------|---------------|-----------------|---------------||
|-----------------|---------------|-----------------|---------------||
|-----------------|---------------|-----------------|------------2--||
|-1-1-1-1-1-1-1-1-|-1-1-1-1-1--2--|-1-1-1-1-1-1-1-1-|-1-1-1-1-1-----||


 Verse
  H    H      S S E E S S E S S E E   H    H
|-6---------|-----------------------|-6---------|
|------1----|-----------------------|------1----|
|-----------|-----------------------|-----------|
|-----------|-1-1-----1-1---1-1---1-|-----------|


  S S E E S S E S S E E   H    H      S S E E S S E S S E E
|-----------------------|-6---------|-----------------------|
|-----------------------|------1----|-----------------------|
|-----------------------|-----------|-----------------------|
|-1-1-----1-1---1-1---1-|-----------|-1-1-----1-1---1-1---1-|


                              Pre-Chorus
  H    H      E E E E Q  Q     Q.   E +Q   Q    +Q..   S S S E +Q
|-6---------|-5-5-5-5-5-----||-------------6--|-(6)------6---6-(6)---|
|------1----|------------1--||------1-(1)-----|----------------------|
|-----------|---------------||----------------|--------1-------------|
|-----------|---------------||-1--------------|----------------------|


  Q.   E +Q   Q    +Q   +S  E. +H       Q.   E +Q   Q    +Q..   S S S E +Q
|-6--------------|----------5--(5)----|-------------6--|-(6)------6---6-(6)---|
|------1-(1)-----|--------------------|------1-(1)-----|----------------------|
|-------------1--|-(1)--(1)-----------|----------------|--------1-------------|
|----------------|--------------------|-1--------------|----------------------|


                                        Verse
  Q.   E +Q   Q    +Q   +S  E. +H        H    H      S S E E S S E S S E E
|-6--------------|----------5--(5)----||-6---------|------------------------|
|------1-(1)-----|--------------------||------1----|------------------------|
|-------------1--|-(1)--(1)-----------||-----------|------------------------|
|----------------|--------------------||-----------|-1-1-----1-1---1-1---1--|


  H    H      S S E E S S E S S E E   H    H

|-6---------|-----------------------|-6---------|
|------1----|-----------------------|------1----|
|-----------|-----------------------|-----------|
|-----------|-1-1-----1-1---1-1---1-|-----------|


  S S E E S S E S S E E   H    H
|-----------------------|-6---------|
|-----------------------|------1----|
|-----------------------|-----------|
|-1-1-----1-1---1-1---1-|-----------|


                            Chorus
  S S E E S S +Q   +S  E.    E E E E E E E E
|-5-5-----5-5-(5)--(5)----||------------------|
|----------------------1--||------------------|
|-------------------------||------------------|
|-------------------------||-1-1-1-1-1-1-1-1--|


  E E E E Q  Q    E E E E E E E E   E E E E Q  Q    E E E E E E E E
|---------------|-----------------|---------------|-----------------|
|---------------|-----------------|---------------|-----------------|
|---------------|-----------------|------------2--|-----------------|
|-1-1-1-1-1--2--|-1-1-1-1-1-1-1-1-|-1-1-1-1-1-----|-1-1-1-1-1-1-1-1-|


                                                    Guitar Solo 1
  E E E E Q  Q    E E E E E E E E   E E E E Q  Q     H    Q  Q
|---------------|-----------------|---------------||-3-------8--|
|---------------|-----------------|---------------||------------|
|---------------|-----------------|------------2--||------3-----|
|-1-1-1-1-1--2--|-1-1-1-1-1-1-1-1-|-1-1-1-1-1-----||------------|


  E E Q  S E. Q    H    Q  Q    S S S S S S S S S S S S S S S S
|----------------|------5-----|----------------------------------|
|-------------1--|---------1--|---------1-1-1-1---------1-1-1-1--|
|----------------|-1----------|----------------------------------|
|-1-1----1-1-----|------------|-1-1-1-1---------1-1-1-1----------|


  H    Q  Q    E E Q  S E. Q    H    Q  Q
|------5-----|----------------|------5-----|
|---------1--|-------------1--|---------1--|
|-1----------|----------------|-1----------|
|------------|-1-1----1-1-----|------------|


                                    Verse
  S S S S S S S S S S S S S S S S    H    H      S S E E S S E S S E E
|---------------------------------||-6---------|-----------------------|
|-----------1-1-1-----------1-1-1-||------1----|-----------------------|
|---------------------------------||-----------|-----------------------|
|---1-1-1-----------1-1-1---------||-----------|-1-1-----1-1---1-1---1-|


  H    H      S S E E S S E S S E E   H    H
|-6---------|-----------------------|-6---------|
|------1----|-----------------------|------1----|
|-----------|-----------------------|-----------|
|-----------|-1-1-----1-1---1-1---1-|-----------|


                                                        Interlude
  S S E E S S E S S E E   H    H      E E E E E E E E    Q  Q  H
|-----------------------|-6---------|-5-5-5-5-5-5-5-5-||------------|
|-----------------------|------1----|-----------------||------------|
|-----------------------|-----------|-----------------||------------|
|-1-1-----1-1---1-1---1-|-----------|-----------------||-1----------|


  E E Q  H      W          +H     Q  Q    W
|-------------|----------|--------1--5--|------|
|-------------|----------|--------------|------|
|-------------|----------|--------------|------|
|-1-1---------|-1--------|-(1)----------|-1----|


  +W           Q  Q  Q  Q    E E Q  Q  Q    Q  Q  Q  Q
|------------|----7---2----|---9-7--2--6--|----7--2-----|
|------------|----------2--|-4------------|----------2--|
|------------|-------------|--------------|-------------|
|-(1)--------|-2-----------|--------------|-2-----------|


                                       Guitar Solo 2
  E E Q  Q  Q    W          W           E E E E E E E E
|---9-7--2-----|-5--------|-1--------||-------6---------|
|-4------------|----------|----------||-----------------|
|--------------|----------|----------||-----------------|
|--------------|----------|----------||-1-1-1---1-1-1-1-|


  E E E E E E E E   E E E E E E E E
|-----------------|-------6---------|
|-------1---------|-----------------|
|-----------------|-----------------|
|-1-1-1---1-1-1-1-|-1-1-1---1-1-1-1-|


  S S S S +E  E S S S S +E  E   E E E E E E E E
|-------------1---------------|-------6---------|
|---------------------1-(1)-1-|-----------------|
|-------1-(1)-----------------|-----------------|
|-1-1-1---------1-1-1---------|-1-1-1---1-1-1-1-|


                                                                   2/4
  E E E E E E E E   E E E E E E E E   S S S S +E  E S S S S +E  E   W
|-----------------|-------6---------|-------------1---------------|------||
|-------1---------|-----------------|---------------------1-(1)-1-|------||
|-----------------|-----------------|-------1-(1)-----------------|------||
|-1-1-1---1-1-1-1-|-1-1-1---1-1-1-1-|-1-1-1---------1-1-1---------|------||


 Bridge
 4/4
  W          W          Q.   E +Q   Q    +H     E E E E
|----------|----------|-6--------------|--------5-5---5--|
|----------|----------|------1-(1)-----|------------1----|
|----------|----------|-------------1--|-(1)-------------|
|----------|----------|----------------|-----------------|


  Q.   E +Q   Q    +Q..   S S S E +Q     Q.   E +Q   Q    +Q   +S  E. +H
|------8-(8)--6--|-(6)----1-6---6-(6)--|-6--------------|----------5--(5)----|
|-3--------------|---------------------|------1-(1)-----|--------------------|
|----------------|---------------------|-------------1--|-(1)--(1)-----------|
|----------------|---------------------|----------------|--------------------|


  Q.   E +Q   Q    +Q..   S S S E +Q     Q.   E +Q   Q    +Q   +S  E. +H
|------8-(8)--6--|-(6)----1-6---6-(6)--|-6--------------|----------5--(5)----|
|-3--------------|---------------------|------1-(1)-----|--------------------|
|----------------|---------------------|-------------1--|-(1)--(1)-----------|
|----------------|---------------------|----------------|--------------------|


             Out-Chorus
  W           E E E E E E E E   E E E E Q  Q    E E E E E E E E
|----------||-----------------|---------------|-----------------|
|----------||-----------------|---------------|-----------------|
|----------||-----------------|---------------|-----------------|
|----------||-----------------|---------------|-----------------|
|----------||-----------------|---------------|-----------------|
|----------||-1-1-1-1-1-1-1-1-|-1-1-1-1-1--2--|-1-1-1-1-1-1-1-1-|


  E E E E Q  Q    E E E E E E E E   E E E E Q  Q    E E E E E E E E
|---------------|-----------------|---------------|-----------------|
|---------------|-----------------|---------------|-----------------|
|---------------|-----------------|---------------|-----------------|
|---------------|-----------------|---------------|-----------------|
|------------2--|-----------------|---------------|-----------------|
|-1-1-1-1-1-----|-1-1-1-1-1-1-1-1-|-1-1-1-1-1--2--|-1-1-1-1-1-1-1-1-|


  E E E E Q  Q    E E E E E E E E   E E E E Q  Q    E E E E E E E E
|---------------|-----------------|---------------|-----------------|
|---------------|-----------------|---------------|-----------------|
|---------------|-----------------|---------------|-----------------|
|---------------|-----------------|---------------|-----------------|
|------------2--|-----------------|---------------|-----------------|
|-1-1-1-1-1-----|-1-1-1-1-1-1-1-1-|-1-1-1-1-1--2--|-1-1-1-1-1-1-1-1-|


  E E E E Q  Q    E E E E E E E E   E E E E Q  Q    E E E E E E E E
|---------------|-----------------|---------------|-----------------|
|---------------|-----------------|---------------|-----------------|
|---------------|-----------------|---------------|-----------------|
|---------------|-----------------|---------------|-----------------|
|------------2--|-----------------|---------------|-----------------|
|-1-1-1-1-1-----|-1-1-1-1-1-1-1-1-|-1-1-1-1-1--2--|-1-1-1-1-1-1-1-1-|


  S S S S S S E Q  Q    W          +W
|---------------------|----------|--------*|
|---------------------|----------|--------*|
|---------------------|----------|--------*|
|---------------------|----------|--------*|
|------------------2--|----------|--------*|
|-1-1-1---1-1-1-1-----|-1--------|-(1)----*|



Duration Legend
---------------
W - whole; H - half; Q - quarter; E - 8th; S - 16th; T - 32nd; X - 64th; a - acciaccatura
+ - note tied to previous; . - note dotted; .. - note double dotted
Uncapitalized letters represent notes that are staccato (1/2 duration)
Irregular groupings are notated above the duration line
Duration letters will always appear directly above the note/fret number it represents the
duration for.  Duration letters with no fret number below them represent rests.  Multi-
bar rests are notated in the form Wxn, where n is the number of bars to rest for.  Low
melody durations appear below the staff

Tablature Legend
----------------
 h   - hammer-on
 p   - pull-off
 b   - bend
 pb  - pre-bend
 r   - bend release (if no number after the r, then release immediately)
 /\  - slide into or out of (from/to "nowhere")
 s   - legato slide
 S   - shift slide
 - natural harmonic
[n]  - artificial harmonic
n(n) - tapped harmonic
 ~   - vibrato
 tr  - trill
 T   - tap
 TP  - trem. picking
 PM  - palm muting
\n/  - tremolo bar dip; n = amount to dip
 \n  - tremolo bar down
 n/  - tremolo bar up
/n\  - tremolo bar inverted dip
 =   - hold bend; also acts as connecting device for hammers/pulls
 <> - volume swell (louder/softer)
 x   - on rhythm slash represents muted slash
 o   - on rhythm slash represents single note slash

Misc Legend
-----------
 |  - bar
||  - double bar
||o - repeat start
o|| - repeat end
*|  - double bar (ending)
 :  - bar (freetime)
 $  - Segno
 &  - Coda
Tempo markers -  = BPM(8/16=s8/s16), where s8 = swing 8ths, s16 = swing 16ths
            
Submit corrections

comments powered by Disqus
↑ Back to top | Children Of Bodom Bass for Angels Don't Kill. Lyrics for acoustic guitar and electric guitar. 1 Tablatures and chords are parodies/interpretations of the original songs. You may use it for private study, scholarship, research or language learning purposes only