» » »

Children Of Bodom, Angels Don't Kill Tabs (ver.3)

Artists:  A B C D E F G H I J K L M N O P Q R S T U V W X Y Z # 

Angels Don't Kill Tabs (ver.3)

Children Of Bodom Tabs
 Rating:
3.9/5 (37 votes)
Angels Don't Kill lessons Tabs too difficult? Try these video lessons and learn fast
                Intro
---0--12--19--12--0--12--20--12--0--12--19--12--0------17----------|
---------------------------------------------------15------15------|
-------------------------------------------------------------------|
-------------------------------------------------------------------|
-------------------------------------------------------------------|
-------------------------------------------------------------------|     x2
Gtr 1&2
------|-----|-------|-----|-------|-------------------------------|
------|-----|-------|-----|-------|-------------------------------|
------|-----|-------|-----|-------|-------------------------------|
------|--2--|----7--|--2--|-------|------5-------5----------------|
--x\--|--2--|--555--|--2--|-------|-------------------------------|
--x\--|--0--|-------|--0--|-------|--0-0-3~--0-0-3~---------------|
Gtr 1
-------------------------------------|----------------------------------|
-------------------------------------|----------------------------------|
---9-----------9----------------9--7-|----9-----------------------------|
-\9-9------\10---10-------------9--7-|--\9-9--------9------------\10----|
--------------------2--2--2--2--7--5-|-----------\10-10-2-2-2-2------10-|
0-----0-0-----------0--0--0--0-------|-0-----0-0------------------------|
Gtr 2
-----------------------------|-----------------------------------------------|
-----------------------------|-----------------------------------------------|
-----------------------------|-----9---------9-------------------------------|
---9-------10---2-2-2-2------|---\9-9-----\10-10--2-2-2-2---\10--------------|
--7-7-----7--7--2-2-2-2-10-8-|--------------------2-2-2-2--------10----------|
0-----0-0-------0-0-0-0------|-0------0-0---------0-0-0-0--------------------|
Verse riff Gtr 1
-----------------------------------------------------------------------------|
-----------------------------------------------------------------------------|
-5-7-----------------ph-----------7-5-7--------------------------------------|
-5-7------------------7-----9p7---7-5-7---------------------12-10-9-7--------|
-3-5-----7h9h10s9-----------------5-3-5-----7h9h10s9-7-9-10------------------|
-----0-0----------0-0---0-0-----0-------0-0----------------------------------|
Gtr2
-----------------------------------------------------------------------------|
-----------------------------------------------------------------------------|
-5-7-------------------------------7-5-7-------------------------------------|
-5-7-----------------ph------------7-5-7--------------------12-10-9-7--------|
-3-5-----7h9h10s9-----7------7p5---5-3-5-----7h9h10s9-7-9-10-----------------|
-----0-0----------0-0---0-0------0-------0-0---------------------------------|
Gtr1
-----------------------------------------------------------------------------|
-----------------------------------------------------------------------------|
-5-7-----------------ph-----------7-5-7---4-4-4-4-4---7----------------------|
-5-7------------------7-----9p7---7-5-7---4-4-4-4-4---7----------------------|
-3-5-----7h9h10s9-----------------5-3-5---2-2-2-2-2---5----------------------|
-----0-0----------0-0---0-0-----0--------------------------------------------|
Gtr2
-----------------------------------------------------------------------------|
-----------------------------------------------------------------------------|
-5-7------------------------------7-5-7---4-4-4-4-4---7----------------------|
-5-7-----------------ph-----------7-5-7---4-4-4-4-4---7----------------------|
-3-5-----7h9h10s9-----7-----7p5---5-3-5---2-2-2-2-2---5----------------------|
-----0-0----------0-0---0-0-----0--------------------------------------------|
Harmonization Gtr1
---------------|-----------------|-------------------------------------------|
---------------|-----------------|-----12-11-11------------------------------|
--9-11----9----|-----------------|--------------12---------------------------|
-------12---10-|-10-10-12-(12)---|-----------------14------------------------|
---------------|--------------12-|-(12)--------------------------------------|
---------------|-----------------|-------------------------------------------|
Gtr2
----------------|-------------|----------------------------------------------|
----------------|-------------|----------------------------------------------|
-12-14-11-12----|-12-14-11----|----------------------------------------------|
-------------14-|----------14-|-(14)-----------------------------------------|
----------------|-------------|------\14-------------------------------------|
----------------|-------------|----------------------------------------------|
Gtr1
-----------------------------------------------------------------------------|
-----------------------------------------------------------------------------|
-5-7-5----------------ph-----------7-5-7----4-4--4-4--7----------------------|
-5-7-5-----------------7-----9p7---7-5-7----4-4--4-4--7----------------------|
-3-5-3-----7h9h10s9----------------5-3-5----2-2--2-2--5----------------------|
-------0-0----------0-0--0-0-----0-------------------------------------------|
Gtr2
-----------------------------------------------------------------------------|
-----------------------------------------------------------------------------|
-5-7-5------------------------------7-5-7---4-4--4-4--7----------------------|
-5-7-5-----------------ph-----------7-5-7---4-4--4-4--7----------------------|
-3-5-3-----7h9h10s9-----7-----7p5---5-3-5---2-2--2-2--5----------------------|
-------0-0----------0-0---0-0-----0------------------------------------------|
solo 1
-----15-19-17b19r17p15-14--14-17b19r15--22-20b22r21--15b17r15b17-------------|
---17--------------------17-----------17-----------17------------------------|
-16--------------------------------------------------------------------------|
-----------------------------------------------------------------------------|
-----------------------------------------------------------------------------|
-----------------------------------------------------------------------------|

-22b24r22b24---19-17-15----------------19-17-15------------------------------|
-------------15--------17-15--------17---------17-15-----------12------------|
----------------------------16-14-------------------16-14-12-14--14-12-------|
----------------------------------17-----------------------------------------|
-----------------------------------------------------------------------------|
-----------------------------------------------------------------------------|

---------------------------------12--12-----------------20b22(20)17----------|
-11-12--12-14b16r14-12-11-12-----12--12---19b21r16---------------------------|
------14--------------------14-14--14--------------19p17---------------------|
-----------------------------------------------------------------------------|
-----------------------------------------------------------------------------|
-----------------------------------------------------------------------------|

-20slowly-23-22b25r---7\--22p19p1722p19p17-----------------------------------|
-------------------------------------------22p20p1920p19p17------------------|
-----------------------------------------------------------------------------|
-----------------------------------------------------------------------------|
-----------------------------------------------------------------------------|
-----------------------------------------------------------------------------|

-22p19p1722p19p17-----------------22p19p1722p19p17----19p17------------------|
------------------22p20p1920p19p17-------------------------------------------|
-----------------------------------------------------------------------------|
-----------------------------------------------------------------------------|
-----------------------------------------------------------------------------|
-----------------------------------------------------------------------------|

-17p15p14-15p14p12-17p15p14-15p14p12-----------------------------------------|
-----------------------------------------------------------------------------|
-----------------------------------------------------------------------------|
-----------------------------------------------------------------------------|
-----------------------------------------------------------------------------|
-----------------------------------------------------------------------------|
solo gtr 2 harmonization
----------------|------------------------------------------------------------|
----------------|------------------------------------------------------------|
-16-14----------|--12-11-10--------------------------------------------------|
-------17-16-14-|-----------12-11-10-----------------------------------------|
----------------|--------------------12--------------------------------------|
----------------|------------------------------------------------------------|
gtr 2 under solo
------------------------|----------------------------------------------------|
------------------------|----------------------------------------------------|
-2-5-7----------------7-|-2-5--7--9-9-9-9--7-7-7--9-9-9--7-7-7---------------|
-2-5-7--2-2--2--2-2---7-|-2-5--7--9-9-9-9--7-7-7--9-9-9--7-7-7---------------|
-0-3-5--2-2--2--2-2---5-|-0-3--5--7-7-7-7--5-5-5--7-7-7--5-5-5---------------|
--------0-0--0--0-00----|----------------------------------------------------|
bridge lick    x3
-----------------------------------------------------------------------------|
-----------13-13-------12-12-------10-10-------------------------------------|
-----------------14-14-------12-12-------11-11-------------------------------|
-14--14-14-------------------------------------------------------------------|
-----------------------------------------------------------------------------|
-----------------------------------------------------------------------------|

-------------------------------------------------14--------------------------|
-----------13-13--------12-15-12--------------15-----------------------------|
-----------------14--------------12---------14-------------------------------|
-14--14-14--------------------------------16---------------------------------|
---------------------------------------17------------------------------------|
-----------------------------------------------------------------------------|

---------------------------------------------------|---24b-------------------|
--------------13-13-------12-12-------10-10--------|-------------------------|
--------------------14-14-------12-12-------11-11--|-------------------------|
-14--14-14-----------------------------------------|-------------------------|
---------------------------------------------------|-------------------------|
---------------------------------------------------|-------------------------|
Under Bridge lick
--------|---------|---------|---------|--------------------------------------|
--------|---------|---------|---------|--------------------------------------|
--------|---------|------5--|---------|--------------------------------------|
--------|----2----|--5---5--|----2----|--------------------------------------|
---x\---|----2----|--5---3--|----2----|---x\---------------------------------|
---x\---|----0----|--3------|----0----|---x\---------------------------------|

--13---------------------------|----------------------------------------15---|
-----14----13----11------------|---14----13---16---13---------------16-------|
--------15----13----13-12------|------15--------------13--------15-----------|
--15----------------------15---|-15----------------------15\17---------------|
-------------------------------|---------------------------------------------|
-------------------------------|---------------------------------------------|
            
Submit corrections

comments powered by Disqus
↑ Back to top | Children Of Bodom Tabs for Angels Don't Kill. Lyrics for acoustic guitar and electric guitar. Tablatures and chords are parodies/interpretations of the original songs. You may use it for private study, scholarship, research or language learning purposes only