» » »

Children 18 3, All My Balloons Tabs (ver.1)

Artists:  A B C D E F G H I J K L M N O P Q R S T U V W X Y Z # 

All My Balloons Tabs (ver.1)

Children 18 3 Tabs
 Rating:
4/5 (6 votes)
All My Balloons lessons Tabs too difficult? Try these video lessons and learn fast
1
                Okay, i've worked a long time on this song. 
I did most of it by ear, and a bit by watching
David play it when i see 'em live.
It's about 98% correct.
about any comments or corrections you have.


Words & Music by Children 18:3


Album:: Children 18:3


.::INTRO::.

[Distortion Channel]

    W         W        W        W
e:|-0~-----|-(0)~---|-(0)~---|-(0)~---||
B:|-0~-----|-(0)~---|-(0)~---|-(0)~---||
G:|-0~-----|-(0)~---|-(0)~---|-(0)~---||
D:|-0~-----|-(0)~---|-(0)~---|-(0)~---||
A:|-0~-----|-(0)~---|-(0)~---|-(0)~---||
E:|-0~-----|-(0)~---|-(0)~---|-(0)~---||


     E  E E  E  E E  E  E   E  E  E E  E  E  E  E 2x
e:|-----------------------|-----------------------||
B:|-----------------------|-----------------------||
G:|-13-13-R-13-13-R-13-13-|-R-12-12-R-12-12-12-12-||
D:|-14-14-R-14-14-R-14-14-|-R-14-14-R-14-14-14-14-||
A:|-----------------------|-----------------------||
E:|-----------------------|-----------------------||

    E E E E E E E E   E E E E E E E E   E E E E E E E E   E E E E E E E E
e:|-----------------|-----------------|-----------------|-----------------|-
B:|-----------------|-----------------|-----------------|-----------------|-
G:|-----------------|-----------------|-----------------|-----------------|-
D:|-2-2-2-2-6-6-6-6-|-4-4-4-4-6-6-6-6-|-2-2-2-2-6-6-6-6-|-4-4-4-4-6-6-6-6-|-
A:|-2-2-2-2-6-6-6-6-|-4-4-4-4-6-6-6-6-|-2-2-2-2-6-6-6-6-|-4-4-4-4-6-6-6-6-|-
E:|-0-0-0-0-4-4-4-4-|-2-2-2-2-4-4-4-4-|-0-0-0-0-4-4-4-4-|-2-2-2-2-4-4-4-4-|-


    E E E E E E E E   E E E E E E E E   E E E E E E E E   E E E E E E E E
e:|-----------------|-----------------|-----------------|-----------------||
B:|-----------------|-----------------|-----------------|-----------------||
G:|-----------------|-----------------|-----------------|-----------------||
D:|-6-6-2-2-6-6-6-6-|-4-4-4-4-6-6-6-6-|-2-2-2-2-6-6-6-6-|-4-4-4-4-6-6-6-6-||
A:|-6-6-2-2-6-6-6-6-|-4-4-4-4-6-6-6-6-|-2-2-2-2-6-6-6-6-|-4-4-4-4-6-6-6-6-||
E:|-4-4-0-0-4-4-4-4-|-2-2-2-2-4-4-4-4-|-0-0-0-0-4-4-4-4-|-2-2-2-2-4-4-4-4-||


.::VERSE::.

[Clean Channel]

    Q   E Q   E E E   E Q   E Q   Q   3x
e:|-4---4-4---4-4-7-|-7-7---7-7---7---||
B:|-5---5-5---5-5-7-|-7-7---7-7---7---||
G:|-6---6-6---6-6-9-|-9-9---9-9---9---||
D:|-6---6-6---6-6-9-|-9-9---9-9---9---||
A:|-4---4-4---4-4-7-|-7-7---7-7---7---||
E:|-4---4-4---4-4-7-|-7-7---7-7---7---||


    Q   E Q   E E E   E Q   E Q   Q   
e:|-----------------|-----------------|-
B:|-4---4-4---4-4-4-|-4-4---4-4---4---|-
G:|-4---4-4---4-4-4-|-4-4---4-4---4---|-
D:|-6---6-6---6-6-6-|-6-6---6-6---6---|-
A:|-6---6-6---6-6-6-|-6-6---6-6---6---|-
E:|-4---4-4---4-4-4-|-4-4---4-4---4---|-

    Q   E Q   E E E   E Q   E Q   Q   2x
e:|-4---4-4---4-4-7-|-7-7---7-7---7---||
B:|-5---5-5---5-5-7-|-7-7---7-7---7---||
G:|-6---6-6---6-6-9-|-9-9---9-9---9---||
D:|-6---6-6---6-6-9-|-9-9---9-9---9---||
A:|-4---4-4---4-4-7-|-7-7---7-7---7---||
E:|-4---4-4---4-4-7-|-7-7---7-7---7---||


.::PRE-CHORUS::.

[Distortion Channel]

    E E E E E E E E   E E E E E E E E   E E E E E E E E   E E E E E E E E
e:|-----------------|-----------------|-----------------|-----------------|
B:|-----------------|-----------------|-----------------|-----------------|
G:|-----------------|-----------------|-----------------|-----------------|
D:|-2-2-2-2-2-2-2-2-|-4-4-4-4-4-4-4-4-|-6-6-6-6-6-6-6-6-|-6-6-6-6-6-6-6-6-|
A:|-2-2-2-2-2-2-2-2-|-4-4-4-4-4-4-4-4-|-6-6-6-6-6-6-6-6-|-6-6-6-6-6-6-6-6-|
E:|-0-0-0-0-0-0-0-0-|-2-2-2-2-2-2-2-2-|-4-4-4-4-4-4-4-4-|-4-4-4-4-4-4-4-4-|


    E E E E E E E E   E E E E E E E E         W                 W
e:|-----------------|-----------------|-----------------|-----------------|
B:|-----------------|-----------------|-----------------|-----------------|
G:|-----------------|-----------------|-----[REST]------|-----[REST]------|
D:|-2-2-2-2-2-2-2-2-|-4-4-4-4-4-4-4-4-|-----------------|-----------------|
A:|-2-2-2-2-2-2-2-2-|-4-4-4-4-4-4-4-4-|-----------------|-----------------|
E:|-0-0-0-0-0-0-0-0-|-2-2-2-2-2-2-2-2-|-----------------|-----------------|


.::CHORUS::.


    E E E E E E E E   E E E E E E E E   E E E E E E E E   E E E E E E E E
e:|-----------------|-----------------|-----------------|-----------------|-
B:|-----------------|-----------------|-----------------|-----------------|-
G:|-----------------|-----------------|-----------------|-----------------|-
D:|-2-2-2-2-6-6-6-6-|-4-4-4-4-6-6-6-6-|-2-2-2-2-6-6-6-6-|-4-4-4-4-6-6-6-6-|-
A:|-2-2-2-2-6-6-6-6-|-4-4-4-4-6-6-6-6-|-2-2-2-2-6-6-6-6-|-4-4-4-4-6-6-6-6-|-
E:|-0-0-0-0-4-4-4-4-|-2-2-2-2-4-4-4-4-|-0-0-0-0-4-4-4-4-|-2-2-2-2-4-4-4-4-|-


    E E E E E E E E   E E E E E E E E   E E E E E E E E   E E E E E E E E
e:|-----------------|-----------------|-----------------|-----------------||
B:|-----------------|-----------------|-----------------|-----------------||
G:|-----------------|-----------------|-----------------|-----------------||
D:|-6-6-2-2-6-6-6-6-|-4-4-4-4-6-6-6-6-|-2-2-2-2-6-6-6-6-|-4-4-4-4-6-6-6-6-||
A:|-6-6-2-2-6-6-6-6-|-4-4-4-4-6-6-6-6-|-2-2-2-2-6-6-6-6-|-4-4-4-4-6-6-6-6-||
E:|-4-4-0-0-4-4-4-4-|-2-2-2-2-4-4-4-4-|-0-0-0-0-4-4-4-4-|-2-2-2-2-4-4-4-4-||

.::VERSE TWO::.

[Clean Channel]

    Q   E Q   E E E   E Q   E Q   E  E
e:|-4---4-4---4-4-7-|-7-7---7-7---7--R-|
B:|-5---5-5---5-5-7-|-7-7---7-7---7--R-|
G:|-6---6-6---6-6-9-|-9-9---9-9---9--R-|
D:|-6---6-6---6-6-9-|-9-9---9-9---9--R-|
A:|-4---4-4---4-4-7-|-7-7---7-7---7--R-|
E:|-4---4-4---4-4-7-|-7-7---7-7---7--R-|

    Q   E Q   E E E   E Q   E Q   Q   3x
e:|-4---4-4---4-4-7-|-7-7---7-7---7---||
B:|-5---5-5---5-5-7-|-7-7---7-7---7---||
G:|-6---6-6---6-6-9-|-9-9---9-9---9---||
D:|-6---6-6---6-6-9-|-9-9---9-9---9---||
A:|-4---4-4---4-4-7-|-7-7---7-7---7---||
E:|-4---4-4---4-4-7-|-7-7---7-7---7---||


    Q   E Q   E E E   E Q   E Q   Q   
e:|-----------------|-----------------|-
B:|-4---4-4---4-4-4-|-4-4---4-4---4---|-
G:|-4---4-4---4-4-4-|-4-4---4-4---4---|-
D:|-6---6-6---6-6-6-|-6-6---6-6---6---|-
A:|-6---6-6---6-6-6-|-6-6---6-6---6---|-
E:|-4---4-4---4-4-4-|-4-4---4-4---4---|-

    Q   E Q   E E E   E Q   E Q   Q   2x
e:|-4---4-4---4-4-7-|-7-7---7-7---7---||
B:|-5---5-5---5-5-7-|-7-7---7-7---7---||
G:|-6---6-6---6-6-9-|-9-9---9-9---9---||
D:|-6---6-6---6-6-9-|-9-9---9-9---9---||
A:|-4---4-4---4-4-7-|-7-7---7-7---7---||
E:|-4---4-4---4-4-7-|-7-7---7-7---7---||

.::PRE-CHORUS::.

[Distortion Channel]

    E E E E E E E E   E E E E E E E E   E E E E E E E E   E E E E E E E E
e:|-----------------|-----------------|-----------------|-----------------|
B:|-----------------|-----------------|-----------------|-----------------|
G:|-----------------|-----------------|-----------------|-----------------|
D:|-2-2-2-2-2-2-2-2-|-4-4-4-4-4-4-4-4-|-6-6-6-6-6-6-6-6-|-6-6-6-6-6-6-6-6-|
A:|-2-2-2-2-2-2-2-2-|-4-4-4-4-4-4-4-4-|-6-6-6-6-6-6-6-6-|-6-6-6-6-6-6-6-6-|
E:|-0-0-0-0-0-0-0-0-|-2-2-2-2-2-2-2-2-|-4-4-4-4-4-4-4-4-|-4-4-4-4-4-4-4-4-|


    E E E E E E E E   E E E E E E E E         W                 W
e:|-----------------|-----------------|-----------------|-----------------|
B:|-----------------|-----------------|-----------------|-----------------|
G:|-----------------|-----------------|-----[REST]------|-----[REST]------|
D:|-2-2-2-2-2-2-2-2-|-4-4-4-4-4-4-4-4-|-----------------|-----------------|
A:|-2-2-2-2-2-2-2-2-|-4-4-4-4-4-4-4-4-|-----------------|-----------------|
E:|-0-0-0-0-0-0-0-0-|-2-2-2-2-2-2-2-2-|-----------------|-----------------|


.::CHORUS::.


    E E E E E E E E   E E E E E E E E   E E E E E E E E   E E E E E E E E
e:|-----------------|-----------------|-----------------|-----------------|-
B:|-----------------|-----------------|-----------------|-----------------|-
G:|-----------------|-----------------|-----------------|-----------------|-
D:|-2-2-2-2-6-6-6-6-|-4-4-4-4-6-6-6-6-|-2-2-2-2-6-6-6-6-|-4-4-4-4-6-6-6-6-|-
A:|-2-2-2-2-6-6-6-6-|-4-4-4-4-6-6-6-6-|-2-2-2-2-6-6-6-6-|-4-4-4-4-6-6-6-6-|-
E:|-0-0-0-0-4-4-4-4-|-2-2-2-2-4-4-4-4-|-0-0-0-0-4-4-4-4-|-2-2-2-2-4-4-4-4-|-


    E E E E E E E E   E E E E E E E E   E E E E E E E E   E E E E E E E E
e:|-----------------|-----------------|-----------------|-----------------||
B:|-----------------|-----------------|-----------------|-----------------||
G:|-----------------|-----------------|-----------------|-----------------||
D:|-6-6-2-2-6-6-6-6-|-4-4-4-4-6-6-6-6-|-2-2-2-2-6-6-6-6-|-4-4-4-4-6-6-6-6-||
A:|-6-6-2-2-6-6-6-6-|-4-4-4-4-6-6-6-6-|-2-2-2-2-6-6-6-6-|-4-4-4-4-6-6-6-6-||
E:|-4-4-0-0-4-4-4-4-|-2-2-2-2-4-4-4-4-|-0-0-0-0-4-4-4-4-|-2-2-2-2-4-4-4-4-||

.::BREAKDOWN::.

    W         W        W        W
e:|-0~-----|-(0)~---|-(0)~---|-(0)~---||
B:|-0~-----|-(0)~---|-(0)~---|-(0)~---||
G:|-0~-----|-(0)~---|-(0)~---|-(0)~---||
D:|-0~-----|-(0)~---|-(0)~---|-(0)~---||
A:|-0~-----|-(0)~---|-(0)~---|-(0)~---||
E:|-0~-----|-(0)~---|-(0)~---|-(0)~---||

    W                  W                W                  W
e:|-----------------|-----------------|-----------------|-----------------|-
B:|-----------------|-----------------|-----------------|-----------------|-
G:|-9~--------------|-(9)~------------|-6~--------------|-(6)~------------|-
D:|-9~--------------|-(9)~------------|-6~--------------|-(6)~------------|-
A:|-7~--------------|-(7)~------------|-4~--------------|-(4)~------------|-
E:|-7~--------------|-(7)~------------|-4~--------------|-(4)~------------|-

     E  E E  E  E E  E  E   E  E  E E  E  E  E  E 2x
e:|-----------------------|-----------------------||
B:|-----------------------|-----------------------||
G:|-13-13-R-13-13-R-13-13-|-R-12-12-R-12-12-12-12-||
D:|-14-14-R-14-14-R-14-14-|-R-14-14-R-14-14-14-14-||
A:|-----------------------|-----------------------||
E:|-----------------------|-----------------------||

[Clean Channel]

    W                W                W                W
e:|----------------|----------------|----------------|----------------|-
B:|----------------|----------------|----------------|----------------|-
G:|----------------|----------------|-6~-------------|----------------|-
D:|-4~-------------|-6~-------------|-6~-------------|-2~-------------|-
A:|-4~-------------|-6~-------------|-4~-------------|-2~-------------|-
E:|-2~-------------|-4~-------------|----------------|-0~-------------|-

    W                W
e:|----------------|----------------|
B:|----------------|----------------|
G:|----------------|----------------|
D:|-4~-------------|-6~-------------|
A:|-4~-------------|-6~-------------|
E:|-2~-------------|-4~-------------|

[Distortion Channel]

    PM-------------------------------|
    E E E E E E E E   E E E E E E E E
e:|-----------------|-----------------||
B:|-----------------|-----------------||
G:|-----------------|-----------------||
D:|-4-4-4-4-4-4-4-4-|-4-4-4-4-4-4-4-4-||
A:|-4-4-4-4-4-4-4-4-|-4-4-4-4-4-4-4-4-||
E:|-2-2-2-2-2-2-2-2-|-2-2-2-2-2-2-2-2-||

.::OUTRO::.

    E E E E E E E E   E E E E E E E E   E E E E E E E E   E E E E E E E E 3x
e:|-----------------|-----------------|-----------------|-----------------||
B:|-----------------|-----------------|-----------------|-----------------||
G:|-----------------|-----------------|-----------------|-----------------||
D:|-2-2-2-2-2-2-2-2-|-4-4-4-4-4-4-4-4-|-6-6-6-6-6-6-6-6-|-6-6-6-6-6-6-6-6-||
A:|-2-2-2-2-2-2-2-2-|-4-4-4-4-4-4-4-4-|-6-6-6-6-6-6-6-6-|-6-6-6-6-6-6-6-6-||
E:|-0-0-0-0-0-0-0-0-|-2-2-2-2-2-2-2-2-|-4-4-4-4-4-4-4-4-|-4-4-4-4-4-4-4-4-||


    E E E E E E E E   E E E E E E E E         W                 W
e:|-----------------|-----------------|-----------------|-----------------|
B:|-----------------|-----------------|-----------------|-----------------|
G:|-----------------|-----------------|-----[REST]------|-----[REST]------|
D:|-2-2-2-2-2-2-2-2-|-4-4-4-4-4-4-4-4-|-----------------|-----------------|
A:|-2-2-2-2-2-2-2-2-|-4-4-4-4-4-4-4-4-|-----------------|-----------------|
E:|-0-0-0-0-0-0-0-0-|-2-2-2-2-2-2-2-2-|-----------------|-----------------|

---------------------------------------------------------------------------
Tab Legend::

E  = eighth note
Q  = quarter note
H  = Half note
W  = whole note
R  = rest
() = ghost note/held note (not played, let ring)
~  = let note ring
PM = palm muting



Finish. Have fun!
            
Submit corrections

comments powered by Disqus
↑ Back to top | Children 18 3 Tabs for All My Balloons. Lyrics for acoustic guitar and electric guitar. 1 Tablatures and chords are parodies/interpretations of the original songs. You may use it for private study, scholarship, research or language learning purposes only