» » »

Children 18 3, All My Balloons Tabs (ver.2)

Artists:  A B C D E F G H I J K L M N O P Q R S T U V W X Y Z # 

All My Balloons Tabs (ver.2)

Children 18 3 Tabs
 Rating:
3.3/5 (6 votes)
All My Balloons lessons Tabs too difficult? Try these video lessons and learn fast
                -------------------------------------------------------------------------------
                             All My Balloons - Children 18:3
-------------------------------------------------------------------------------

Tuning:  With this tab I will give you all the right chords for every part and you will 
to play it with the song to get the strumming patterns!

Intro:  Ring out open and then play these first two chords

e|---0~----4----7---------------------------------------------------------------|
B|---0~----5----7---------------------------------------------------------------|
G|---0~----6----9---------------------------------------------------------------|
D|---0~----6----9---------------------------------------------------------------|
A|---0~----4----7---------------------------------------------------------------|
E|---0~----4----7---------------------------------------------------------------|

Intro:  This is the 2nd part of the intro, which is also the chorus:

e|---------------------------------------------------------------------------|
B|---------------------------------------------------------------------------|
G|---------------------------------------------------------------------------|
D|---2----6----4----6--------------------------------------------------------|
A|---2----6----4----6--------------------------------------------------------|
E|---0----4----2----4--------------------------------------------------------|

Verse:  "Sing, Sing OH! so sucker for the sugar..."

e|---4------7-------------------------------------------------------------------|
B|---5------7-------------------------------------------------------------------|
G|---6------9-------------------------------------------------------------------|
D|---6------9-------------------------------------------------------------------|
A|---4------7-------------------------------------------------------------------|
E|---4------7-------------------------------------------------------------------|

Pre-Chorus:  "The words I wrote are a broken chain..."

e|------------------------------------------------------------------------------|
B|------------------------------------------------------------------------------|
G|------------------------------------------------------------------------------|
D|----2----4----6----4----------------------------------------------------------|
A|----2----4----6----4----------------------------------------------------------|
E|----0----2----4----2----------------------------------------------------------|

Chorus:  "Whoa OH!"

e|---------------------------------------------------------------------------|
B|---------------------------------------------------------------------------|
G|---------------------------------------------------------------------------|
D|----2----6----4----6-------------------------------------------------------|
A|----2----6----4----6-------------------------------------------------------|
E|----0----4----2----4-------------------------------------------------------|

Now you go back to the verse and you play those chords right after the chorus!

I dont exactly have the song on hand to listen to but if you have questions or I 
missed apart then let me know and I will try to fix it!
Comments are welcome, also is sincere correction!

Thanks and Enjoi

Andrew Apple

| /  slide up
| \  slide down
| h  hammer-on
| p  pull-off
| ~  vibrato
| +  harmonic
| x  Mute note
===============================================================================
            
Submit corrections

comments powered by Disqus
↑ Back to top | Children 18 3 Tabs for All My Balloons. Lyrics for acoustic guitar and electric guitar. Tablatures and chords are parodies/interpretations of the original songs. You may use it for private study, scholarship, research or language learning purposes only