» » »

Children 18 3, All My Balloons Bass tabs (ver.1)

Artists:  A B C D E F G H I J K L M N O P Q R S T U V W X Y Z # 

All My Balloons Bass tabs (ver.1)

Children 18 3 Tabs
 Rating:
4/5 (5 votes)
All My Balloons lessons Tabs too difficult? Try these video lessons and learn fast
                this song took a while to tab i'm not sure if its a 100% but i find it to be 
preaty darn close it is a fun song to play so enjoy

(*)repeat frame
(~)hold note

intro 
|-------||------------------------|
|-------||*----------------------*|
|-------||*----------2222-4-22---*|x2
|-0~~~~-||-2222-4444-----------4--|

verse 1
|---------------------|
|---------------------|
|---------------------|x4
|-0000-4444-2222-4444-|

verse 2 
|--------------------|  |------------------------| 
|--------------------|  |------------------------|
|-44444444-22--------|x3|-444444----44---4-22----|
|-------------44-2222|  |--------22----2------44-|

|--------------------|
|--------------------|
|-44444444-22--------|x2
|-------------44-2222|  

pre-chorus
|-------------------------------------|
|-------------------------------------|
|-------------------------------------|x2
|-00000000-22222222-44444444-22222222-|

chorus
|---------------------|
|---------------------|
|---------------------|x4
|-0000-4444-2222-4444-|

verse 2 
|--------------------|  |------------------------| 
|--------------------|  |------------------------|
|-44444444-22--------|x3|-444444----44---4-22----|
|-------------44-2222|  |--------22----2------44-|

|--------------------|
|--------------------|
|-44444444-22--------|x2
|-------------44-2222|  

pre-chorus (on the secound time you play the pre-chorus you end on the very first 4)
|-------------------------------------|
|-------------------------------------|
|-------------------------------------|x2
|-00000000-22222222-44444444-22222222-|

chorus
|---------------------|
|---------------------|
|---------------------|x4
|-0000-4444-2222-4444-|

bridge
|-------------------||----------------------|
|-------2~~~~-0~~~~-||-------------------22-|
|-------------------||-----------2222-44----|x2
|-0~~~~-------------||-2222-4444------------|

|----------------------------------------------|
|----------------------------------------------|
|----------------------------------------------|
|-0~~~~-2~~~~-4~~~~-2~~~~-0~~~~-2~~~~-44444444-|

pre-chorus (on the fourth time you play the pre-chorus you end on the very first 4)
|-------------------------------------|
|-------------------------------------|
|-------------------------------------|x4
|-00000000-22222222-44444444-22222222-|

this band is amazing and this is a realy fun song to play 
if you notice anything wrong leave a pm or send me a email at 
            
Submit corrections

comments powered by Disqus
↑ Back to top | Children 18 3 Bass for All My Balloons. Lyrics for acoustic guitar and electric guitar. Tablatures and chords are parodies/interpretations of the original songs. You may use it for private study, scholarship, research or language learning purposes only