» » »

Chicago, Color My World Tabs (ver.2)

Artists:  A B C D E F G H I J K L M N O P Q R S T U V W X Y Z # 

Color My World Tabs (ver.2)

Chicago Tabs
 Rating:
4.4/5 (7 votes)
Color My World lessons Tabs too difficult? Try these video lessons and learn fast
                INTRO                                  Repeat 3 times:interlude,verse & solo
   FM7               [repeat measure]    FM7 [1x1230]        
|--------0--------|------------------||---------0--------|------------------|
|-----1----1------|------------------||------1----1------|------------------|
|---2--------2----|------o-/---------||o---2--------2----|------o-/---------|
|-3---------------|-------/-o--------||o-3---------------|-------/-o--------|
|-----------------|------------------||------------------|------------------|
|-1---------------|------------------||--1---------------|------------------|
                              
  Am [x02210]                           Bb [x13331]
|---------0--------|------------------|---------1--------|------------------|
|------1----1------|------------------|------3----3------|------------------|
|----2--------2----|------o-/---------|----3--------3----|------o-/---------|
|--2---------------|-------/-o--------|--3---------------|-------/-o--------|
|--0---------------|------------------|--1---------------|------------------|
|------------------|------------------|------------------|------------------|

     xxx331				            xx6543
|----------1-------|------------------|---------3--------|------------------|
|-------3----3-----|------------------|-------4---4------|------------------|
|---0-3--------3---|------o-/---------|----5--------5----|------o-/---------|
|------------------|-------/-o--------|--6------------6--|-------/-o--------|
|------------------|------------------|------------------|------------------|
|------------------|------------------|------------------|------------------|
      xx4321                                 xx4210
|-------1----------|------------------|--------0---------|------------------|
|-----2---2--------|------------------|------1---1-------|------1-3-1-------|
|---3-------3------|------o-/---------|----2-------2-----|----2-------2-----|
|-4----------------|-------/-o--------|--4---------------|--4---------------|
|------------------|------------------|------------------|------------------|
|------------------|------------------|------------------|------------------|
      xx5432                                xxx321
|-------2----------|------------------|---------1--------|------------------|
|-----3---3--------|------------------|-------2---2------|------------------|
|---4-------4------|------o-/---------|--0--3-------3----|-----o-/----------|
|-5----------------|-------/-o--------|------------------|------/-o---------|
|------------------|------------------|------------------|------------------|
|------------------|------------------|------------------|------------------|

  x310      repeat meas. 3 times   xx3210        xx1331  xx031x
|-------0-----|--------------|-------0---------|------------------||--0-*1-||
|-----1---1---|-------/-/----|-----1---1-------|------3------1----||--1----||
|-0-3-------3-|----3-/-/-----|---2-------2-----|----3------3-----o||--2----||
|-------------|-----/-/-3----|-3---------------|--3------0-------o||--3----||
|-------------|----/-/-------|-----------------|------------------||-------||
|-------------|--------------|-----------------|------------------||--1----||
								     *trill

Verse
As time goes on I realize 
Just what you mean to me 
And now, now that you're near 
Promise your love 
That I've waited to share 
And dreams of our moments together 
Color my world with hope of loving you

--
This tab should sound more like the real thing

Alain Bernard
wingman
            
Submit corrections

comments powered by Disqus
↑ Back to top | Chicago Tabs for Color My World. Lyrics for acoustic guitar and electric guitar. Tablatures and chords are parodies/interpretations of the original songs. You may use it for private study, scholarship, research or language learning purposes only