>
 >
Color My World

Color My World Guitar Tabs

Chicago - Color My World chords, tabs, tablatures, lyrics

Guitar lessons | Add/correct | Request | Top 50 tabs Artists:  A B C D E F G H I J K L M N O P Q R S T U V W X Y Z 0-9

Color My World Guitar Tabs – Chicago

CD, Sheet music, Poster

Do you like Color My World? Share with your friends now
Bass TabsBass Tabs v2TabsTabs v2

 COLOR MY WORLD (Chicago)
 ==============
  
   -- comp. James Pankow, 1970
   -- guitar arrangement: tcg, c.1983
   --6/8 (orig. 12/8) // Key of F // Moderately
   --Legato (hold all chord forms)
   --note durations: all eighth notes unless otherwise indicated
       (q. = dotted quarter [3-eighths-worth])
   --some lyrics run together to more closely approximate which notes they
       belong to. . . .
  
 INTRO                                 VERSE
   FM7               BbM7     C9        FM7 [1x1230]        [repeat measure]
 ||--------5--------|-----5----3------||---------0--------|------------------|
 ||-----5----5------|-----3----3------||------1----1------|------------------|
 ||---5--------5----|---3------3------||o---2--------2----|------o-/---------|
 ||-3---------------|-3--------2------||o-3---------------|-------/-o--------|
 ||-----------------|-----------------||------------------|------------------|
 ||-----------------|-----------------||--1---------------|------------------|
                               q.  As  timegoeson__                  I re-al-
  
  Am [x02210]                           Bb [x13331]
 |---------0--------|------------------|---------1--------|------------------|
 |------1----1------|------------------|------3----3------|------------------|
 |----2--------2----|------o-/---------|----3--------3----|------o-/---------|
 |--2---------------|-------/-o--------|--3---------------|-------/-o--------|
 |--0---------------|------------------|--1---------------|------------------|
 |------------------|------------------|------------------|------------------|
   -ize__                  just what you mean__                        to-oo
  
  EbM9 [x6576x]                         AbM7 [4x554x]
 |------------------|------------------|------------------|------------------|
 |---------6--------|---------6--------|---------4--------|------------------|
 |----7------7------|------7----7------|------5----5------|------o-/---------|
 |--5---5------5----|----5--------5----|----5--------5----|-------/-o--------|
 |--6---------------|--6---------------|------------------|------------------|
 |------------------|------------------|--4---------------|------------------|
   me,__                          and    now,__                  nowthatyou're
  
  GbM7 [2x332x]      GbM7/Bb [6x466x]   D9/A [5x455x]      D7 [x5453x]
 |------------------|------------------|------------------|------------------|
 |---------2--------|----------6-------|---------5--------|-----------3------|
 |------3----3------|------6------6----|------5----5------|------5------5----|
 |----3--------3----|----4----------4--|----4--------4----|---4-----------4--|
 |------------------|------------------|------------------|-5----------------|
 |--2---------------|--6---------------|--5---------------|------------------|
   near__                    promiseyour love--              thatI'vewaitedto
  
  GM7 [3x443x]       GM7/B [7x577x]     Eb9/Bb [6x566x]    Eb7 [x6564x] D7 Db7
 |------------------|------------------|------------------|------------------|
 |---------3--------|---------7--------|---------6--------|---------4--3---2-|
 |------4----4------|------7----7------|------6----6------|------6-----5---4-|
 |----4--------4----|----5--------5----|----5--------5----|----5-------4---3-|
 |------------------|------------------|------------------|--6---------5---4-|
 |--3---------------|--7---------------|--6---------------|------------------|
   share.__                       And    dreams__              ofourmomentsto-
  
  C7 [x3231x]        [x3x313]           [x3231x]           [x3x313]
 |------------------|---------3--------|------------------|----------3-------|
 |---------1--------|------1----1------|----------1-------|------1===1-------|
 |------3----3------|----3--------3----|-------3----3-----|----3=====3-------|
 |----2--------2----|------------------|----2---------2---|------------------|
 |--3---------------|--3---------------|--3---------------|--3=======3-------|
 |------------------|------------------|------------------|------------------|
   eth  -  er,__                         colourmy world__            q.   with
  
  FM7 [1x3210]     Bb[x1333x]  C7[x3535x]  FM7 [1x3210] 
 |---------0------|----------------------|---------0========|===0=====0-----||
 |------1----1----|--------3---------5---|------1----1======|===1=====1-----||
 |----2--------2--|-----3---------3------|----2--------2====|===2=====2----o||
 |--3-------------|--3---------5---------|--3---------------|---3=====3----o||
 |----------------|--1---------3---------|------------------|---------------||
 |--1-------------|----------------------|--1---------------|---1=====1-----||
  hopes                    of  lov - ing   you.__               q.____q.


  *===*===*===*===*===*===*===*===*===*===*===*===*===*===*===*===*===*===*
  * ------------------------------- _-^-_ ------------------------------- *
  | "--If I decide to practice a   / o )=\    slight movement from right  |
  *  to left . . . or from left   {   /===}    to right . . . it's        *
  |     nobody's business but my   \ (=o=/    own." (_A_Day_for_Eeyore_)  |
  *===*===*===*===*===*===*===*===* ^-_=^ *===*===*===*===*===*===*===*===*





Comments


Popular Chicago tabs & chords
Just You 'n' Me Chords
King Of Might Have Been Chords
Caravan Tabs
Poem 58 Intro Tabs
Sing A Mean Tune Kid Tabs
South California Purples Tabs
25 Or 6 To 4 Ukulele
Happy Man Ukulele
What Kind Of Man Would I Be Ukulele
Wishing You Were Here Ukulele


Song lyrics



↑ Back to top | Tablatures and chords are parodies/interpretations of the original songs. You may use it for private study, scholarship, research or language learning purposes only
© 2014 AZChords.com Contact us | Privacy policy | DMCA | Add/correct tabs | Request tabs | Top 50 tabs