» » »

Chicago, Color My World Bass tabs (ver.2)

Artists:  A B C D E F G H I J K L M N O P Q R S T U V W X Y Z # 

Color My World Bass tabs (ver.2)

Chicago Tabs
Rating:
0/5 (0 votes)
Color My World lessons Tabs too difficult? Try these video lessons and learn fast
                [INTRO] (Original written in 12/8 - tabbed here in 4/4 interpretted as triplets)

  Fmaj7    Fmaj7    Am       Bb       Ebmaj9   Abmaj7   Gbmaj7   D9  D7
G:--------|--------|--------|--------|--------|--------|--------|--------|
D:--------|--------|--------|------3-|1---1---|--------|4---4---|0---0-4-|
A:--------|------3-|0---0-3-|1---1---|------1-|------6-|------4-|--------|
E:--------|1---1---|--------|--------|--------|4---4---|--------|--------|

  Gmaj7    Eb9      C7       C7       Fmaj7   Bb  C7
G:--------|--------|--------|--------|----------------|
D:------0-|1---1---|--------|--------|----------------|
A:--------|------1-|3---3---|3---3---|--------1---3---|
E:3---3---|--------|--------|------0-|1---------------|
                                      1   2   3   4
[VERSE]

     Fmaj7                  Am                     Bb            Ebmaj9
  As time goes on     I realize      Just what you mean       To me
      Abmaj7                  Gbmaj7              D9   D7                    Gmaj7
  And now     Now that you're near   Promise your love   that I've waited to share
      Eb9                       C7        C7              Fmaj7        Bb  C7      
  And dreams   Of our moments together    Color my world   with hopes   of loving...

  Fmaj7    Am       Bb       Ebmaj9   Abmaj7   Gbmaj7   D9  D7
G:--------|--------|--------|--------|--------|--------|--------|
D:--------|--------|------3-|1---1---|--------|4---4---|0---0-4-|
A:------3-|0---0-3-|1---1---|------1-|------6-|------4-|--------|
E:1---1---|--------|--------|--------|4---4---|--------|--------|

  Gmaj7    Eb9      C7       C7       Fmaj7   Bb  C7
G:--------|--------|--------|--------|----------------|
D:------0-|1---1---|--------|--------|----------------|
A:--------|------1-|3---3---|3---3---|--------1---3---|
E:3---3---|--------|--------|------0-|1---------------|
                                      1   2   3   4


[CODA] (Flute Instrumental)

     Fmaj7
 ... you

  Fmaj7    Am       Bb       Ebmaj9   Abmaj7   Gbmaj7   D9  D7
G:--------|--------|--------|--------|--------|--------|--------|
D:--------|--------|------3-|1---1---|--------|4---4---|0---0-4-|
A:------3-|0---0-3-|1---1---|------1-|------6-|------4-|--------|
E:1---1---|--------|--------|--------|4---4---|--------|--------|

  Gmaj7    Eb9      C7       C7       Fmaj7   Bb  C7   Fmaj7
G:--------|--------|--------|--------|----------------|--------|
D:------0-|1---1---|--------|--------|----------------|--------|
A:--------|------1-|3---3---|3---3---|--------1---3---|--------|
E:3---3---|--------|--------|------0-|1---------------|1-------|


January 5th, 2012
            

comments powered by Disqus
↑ Back to top | Chicago Bass for Color My World. Lyrics for acoustic guitar and electric guitar. Tablatures and chords are parodies/interpretations of the original songs. You may use it for private study, scholarship, research or language learning purposes only