>
 >
Family System 2

Family System 2 Guitar Tabs

Chevelle - Family System 2 chords, tabs, tablatures, lyrics

Guitar lessons | Add/correct | Request | Top 50 tabs Artists:  A B C D E F G H I J K L M N O P Q R S T U V W X Y Z 0-9

Family System 2 Guitar Tabs – Chevelle

CD, Sheet music, Poster

Do you like Family System 2? Share with your friends now
Bass TabsTabsTabs v2Tabs v3
                         Chevelle – Family System
By Chris Miller	
Tuning : I’m guessing he uses a 7-string but here’s the tab for a 6 string... 
2 ½  steps down on low e... 1 ½ steps down on the rest of the strings.

Intro/Bridge\\hit this for awhile    then this at the end
Db|--------------------|-------------12-12------------------------------------|
Ab|--12-12-12-12-12-12-|-12-12-13-13------------------------------------------|
E |--------------------|------------------------------------------------------|
B |--------------------|------------------------------------------------------|
Gb|--------------------|------------------------------------------------------|
B |--------------------|------------------------------------------------------|
         (18x)

After Intro  (and Bridge)
Db|---------------------------------------------------------------------------|
Ab|---------------------------------------------------------------------------|
E |---------------------------------------------------------------------------|
B |-0-0-------------------00-00-------------------0---00----------------------|
Gb|-0-0-------------------00-00-------------------0---00----------------------|
B |-0-0-0-7-4-0-7-4-0-3-6-00-00-0-7-4-0-6-3-0-3-6-0---00----------------------|
       Pm...............|      Pm................|
Riff
Db|---------------------------------------------------------------------------|
Ab|---------------------------------------------------------------------------|
E |---------------------------------------------------------------------------|
B |-7-4-0-7-4-0-6-3-0-3-6-0-7-4-0-7-4-0-6-3-0-3-6-0---6-----------------------|
Gb|-7-4-0-7-4-0-6-3-0-3-6-0-7-4-0-7-4-0-6-3-0-3-6-0---6-----------------------|
B |-7-4-0-7-4-0-6-3-0-3-6-0-7-4-0-7-4-0-6-3-0-3-6-0---6-(5)-(4)-(3)-(2)-(2)---|
                      (2x)                              end with some harmonics

Chorus
Db|---------------------------------------------------------------------------|
Ab|---------------------------------------------------------------------------|
E |---------------------------------------------------------------------------|
B |--3--3-3-3----------3--3-3s5-5--0--0-0-0---------0--0-0-0s5-5--------------|
Gb|--3--3-3-3----------3--3-3s5-5--0--0-0-0---------0--0-0-0s5-5--------------|
B |--3--3-3-3--x-x-x-x-3--3-3s5-5--0--0-0-0-x-x-x-x-0--0-0-0s5-5--------------|

Riff 2 
Db|---------------------------------------------------------------------------|
Ab|--13-12-12-12-12-12-----13-12-12-12-12-12----------------------------------|
E |---------------------------------------------------------------------------|
B |--------------------00--------------------0-0-0----------------------------|
Gb|--------------------00--------------------0-0-0----------------------------|
B |--------------------00--------------------0-0-0----------------------------|



The structure is pretty easy to figure out… and all I can say about this song... 
kickass





Comments


Popular Chevelle tabs & chords
Until Youre Reformed Bass Tabs
Panic Prone 2 Chords
A New Momentum Tabs
Braniac Tabs
Breach Birth Tabs
Forfeit (Live) Tabs
Point 1 5 Tabs
Prima Donna 1 Tabs
Send The Pain Below 6 Tabs
Until Youe Reformed Tabs


Song lyrics



↑ Back to top | Tablatures and chords are parodies/interpretations of the original songs. You may use it for private study, scholarship, research or language learning purposes only
© 2014 AZChords.com Contact us | Privacy policy | DMCA | Add/correct tabs | Request tabs | Top 50 tabs