>
 >
Family System 1

Family System 1 Guitar Tabs

Chevelle - Family System 1 chords, tabs, tablatures, lyrics

Guitar lessons | Add/correct | Request | Top 50 tabs Artists:  A B C D E F G H I J K L M N O P Q R S T U V W X Y Z 0-9

Family System 1 Guitar Tabs – Chevelle

CD, Sheet music, Poster

Do you like Family System 1? Share with your friends now
Bass TabsTabsTabs v2Tabs v3
chevelle

-family system-
tuning: b f# b e g# c#  low to high
(0)=a harmonic on the first fret. should produce a bassy percussion sound.

Adrenalin packed and a great way to start their new album! This is a very fast paced song so pay attention.


intro x2
|---------------------------------------------0-------------|
|---0---0---0---0---0---0---0---0---0---0---0---0-----------|
|-4---4---4---4---4---4---4---4---4---4---5-----------------|
|-----------------------------------------------------------|
|-----------------------------------------------------------|
|-----------------------------------------------------------|
 x2
|---------------------------------------------0-------------|
|---0---0---0---0---0---0---0---0---0---0---0---0-----------|
|-4---4--4brb-4---4--4brb-4---4--4brb-4---5-----------------|
|-----------------------------------------------------------|
|-----------------------------------------------------------|
|-----------------------------------------------------------|

riff a                                                                                                                       wah off                          wah           wah off
|-------------------------------|-------------|--------|
|-------------------------------|-------------|--------|
|-------------------------------|-------------|--------|
|-0-0-0-7-3-0-5-3-0-3-5--00-0-0-|-------------|-0--0-0-|
|-0-0-0-7-3-0-5-3-0-3-5--00-0-0-|-------------|-0--0-0-|
|-0-0-0-7-3-0-5-3-0-3-5--00-0-0-|-7-3-0-5-3-0-|-0--0-0-|
pm    . . . . . . . . .  .. 
wah off                          wah
|-------------------------------|---------|
|-------------------------------|---------|
|-------------------------------|---------|
|-0-0-0-7-3-0-5-3-0-3-5--00-0-0-|---------|
|-0-0-0-7-3-0-5-3-0-3-5--00-0-0-|---------|
|-0-0-0-7-3-0-5-3-0-3-5--00-0-0-|-7-3-0-5-|
pm    . . . . . . . . .  .. 

riff b x3      
|-------------------------|------------------------|
|-------------------------|------------------------|
|-------------------------|------------------------|
|-7-3-0-7-3-0-5-3-0-3-5-0-|-7-3-0-7-3-0-5--(3-3-3)-|         
|-7-3-0-7-3-0-5-3-0-3-5-0-|-7-3-0-7-3-0-5--(3-3-3)-|
|-7-3-0-7-3-0-5-3-0-3-5-0-|-7-3-0-7-3-0-5--(3-3-3)-|

riff c x4
|-----------------------------------------------------------|
|-----------------------------------------------------------|
|-----------------------------------------------------------|
|-7-3-0-7-3-0-5-3-0-3-5-0-----------------------------------|
|-7-3-0-7-3-0-5-3-0-3-5-0-----------------------------------|
|-7-3-0-7-3-0-5-3-0-3-5-0-----------------------------------|

verse
|----------------------------------------------------------------|
|----------------------------------------------------------------|
|----------------------------------------------------------------|
|-3---3--3-3--3-3-3-3--3---3--3-3\5--5-5-5-0-0---0--0-0--0-0-0-0-|
|-3---3--3-3--3-3-3-3--3---3--3-3\5--5-5-5-0-0---0--0-0--0-0-0-0-|
|-3---3--3-3--3-3-3-3--3---3--3-3\5--5-5-5-0-0---0--0-0--0-0-0-0-|
pm            . . . .                                    . . . .  

|----------------------|
|----------------------|
|-0---0--0-0-5-5-5-5-5-|
|-0---0--0-0-5-5-5-5-5-|
|-0---0--0-0-5-5-5-5-5-|

|------------------------------------------|
|------------------------------------------|
|------------------------------------------|
|-3---3--3-3--3-3-3-3--3---3--3-3\5--5-5-5-|
|-3---3--3-3--3-3-3-3--3---3--3-3\5--5-5-5-|
|-3---3--3-3--3-3-3-3--3---3--3-3\5--5-5-5-|
pm            . . . .                      

riff d         wah           wah off       wah
|-------------|-------------|-------------|--------------------|
|-------------|-------------|-------------|--------------------|
|-------------|-------------|-------------|--------------------|
|-7-3-0-7-3-0-|-------------|-7-3-0-7-3-0-|--------------------|
|-7-3-0-7-3-0-|-------------|-7-3-0-7-3-0-|--------------------|
|-7-3-0-7-3-0-|-5-3-0-3-5-0-|-7-3-0-7-3-0-|-5-3-0-3-5-0--------|

wah off        wah           wah off
|-------------|-------------|---------------|
|-------------|-------------|---------------|
|-------------|-------------|---------------|
|-7-3-0-7-3-0-|-------------|-7-3-0-7-3-0-5-|
|-7-3-0-7-3-0-|-------------|-7-3-0-7-3-0-5-|
|-7-3-0-7-3-0-|-5-3-0-3-5-0-|-7-3-0-7-3-0-5-|

riff c
verse

bridge x2 
|-----------------------------------------------------------|
|-----------------------------------------------------------|
|-5p4-4-4--4--------5p4-4-4--4------------------------------|
|------------(0)---------------(0--0--0)--------------------|
|------------(0)---------------(0--0--0)--------------------|
|------------(0)---------------(0--0--0)--------------------|

|-------------------------------------------------------------------------------------------------|
|-------------------------------------------------------------------------------------------------|
|-5p4-4-4--4--------5p4-4-4--4-------------5p4-4-4--4--------5p4-4-4--4-5p4-4-4--4----------------|
|-------------0----------------0--0--0----------------0-------------------------------------------|
|-------------0----------------0--0--0----------------0-------------------------------------------|
|-------------0----------------0--0--0----------------0-------------------------------------------|

chorus x3
|-------------------------------------------------------------------------------------------------|
|-------------------------------------------------------------------------------------------------|
|-------------------------------------5-5-5-4-4-4-------------------------------------5-5-5-4-4-4-|
|-3---3-3-3-3-3---3-3-3-3-3---3-3-3-3-------------0---0-0-0-0-0---0-0-0-0-0---0-0-0-0-------------|
|-3---3-3-3-3-3---3-3-3-3-3---3-3-3-3-3-3-3-2-2-2-0---0-0-0-0-0---0-0-0-0-0---0-0-0-0-3-3-3-2-2-2-|
|-3---3-3-3-3-3---3-3-3-3-3---3-3-3-3-------------0---0-0-0-0-0---0-0-0-0-0---0-0-0-0-------------|

|-----------------------------------------------------------|
|-----------------------------------------------------------|
|-------------------------------------5-5-5-4-4-4-----------|
|-3---3-3-3-3-3---3-3-3-3-3---3-3-3-3-------------0---------|
|-3---3-3-3-3-3---3-3-3-3-3---3-3-3-3-3-3-3-2-2-2-0---------|
|-3---3-3-3-3-3---3-3-3-3-3---3-3-3-3-------------0---------|

intro
riff a
riff b

x3
|-----------------------|--------------------------------|
|-----------------------|--------------------------------|
|-2--2-2-2-2-2----------|-2--2-2-2-2-2-5-5-5-4-4-4-------|
|-0--0-0-0-0-0--0-0-0-0-|-0--0-0-0-0-0-0-0-0-0-0-0-------|
|-0--0-0-0-0-0--0-0-0-0-|-0--0-0-0-0-0-3-3-3-2-2-2-------|
|-0--0-0-0-0-0--0-0-0-0-|-0--0-0-0-0-0-0-0-0-0-0-0-------|
pm              . . . . 

riff c

|--------------------------------------------------------|
|--------------------------------------------------------|
|--------------------------------------------------------|
|-3---3--3-3--3-3-3-3--3---3--3-3\5--5-5-5-0-------------|
|-3---3--3-3--3-3-3-3--3---3--3-3\5--5-5-5-0-------------|
|-3---3--3-3--3-3-3-3--3---3--3-3\5--5-5-5-0-------------|
pm            . . . . 

intro- volume swell out

end





Comments


Popular Chevelle tabs & chords
Antisaint Bass Tabs
Jars Bass Tabs
Wonder Whats Next Bass Tabs
Fizgig Tabs
Highlands Appartion Tabs
Send The Pain Below Tabs
Shameful Metaphors Tabs
Sleep Apnea 3 Tabs
The Meddler Tabs
Vitamin R Leading Us Along Tabs


Song lyrics



↑ Back to top | Tablatures and chords are parodies/interpretations of the original songs. You may use it for private study, scholarship, research or language learning purposes only
© 2014 AZChords.com Contact us | Privacy policy | DMCA | Add/correct tabs | Request tabs | Top 50 tabs