» » »

For The Punx Bass tabs (ver.2)

Artists:  A B C D E F G H I J K L M N O P Q R S T U V W X Y Z # 

For The Punx Bass tabs (ver.2)

Casualties
Rating:
0/5 (0 votes)

Hard to play? Try these video lessons and learn fast.
                intro/verse
do that a couple times
G:---------------------------------------------------------------

D:-------------------------5-5-5-5-5-5-5-5-------------------------------5-5-5
-5-1-1-3------------
A:------------------------------------------------------------------------

E:-3-3-3-3-3-3-3-3--------------------------3-3-3-3-3-3-3-3-------------------
------
---

do that i think 3 times
G:---------------------------------------------------------------
D:---------------------------------------------------------------
A:-------3-3-3---------5-5-5----------------------------------------------
E:-3-3-3-------7-7-7----------------------------------------------------

just listen to the cd to see how many times
            
Hard to play? Try these video lessons and learn fast. | Correct




comments powered by Disqus
↑ Back to top | Tablatures and chords are parodies/interpretations of the original songs. You may use it for private study, scholarship, research or language learning purposes only