» » »

Casualties Tabs (ver.1)

Artists:  A B C D E F G H I J K L M N O P Q R S T U V W X Y Z # 

Casualties Tabs (ver.1)

Casualties
Rating:
0/5 (0 votes)

Hard to play? Try these video lessons and learn fast.
                Intro
e----------------------
B----------------------
G----------------------
D----9-10--------------
A-10-7-8--8-5---------- *2
E-8-------6-3----------

Chours
e--------------------------------------------
B--------------------------------------------
G--------------------------------------------
D-5-5-5-------5-5-5-------5-5-5-----------5--
A-3-3-3-5-5-5-3-3-3-5-5-5-3-3-3-5-5-5-8-5-3--
E---------3-3-3-----3-3-3---------3-3-3-6-3--
Intro
e----------------------
B----------------------
G----------------------
D----9-10--------------
A-10-7-8--8-5---------- *2
E-8-------6-3----------

Chours
e--------------------------------------------
B--------------------------------------------
G--------------------------------------------
D-5-5-5-------5-5-5-------5-5-5-----------5--
A-3-3-3-5-5-5-3-3-3-5-5-5-3-3-3-5-5-5-8-5-3--
E---------3-3-3-----3-3-3---------3-3-3-6-3--
            
Hard to play? Try these video lessons and learn fast. | Correct




comments powered by Disqus
↑ Back to top | Tablatures and chords are parodies/interpretations of the original songs. You may use it for private study, scholarship, research or language learning purposes only